Kittie - What Ive Always Wanted Chords & Tabs

 

What Ive Always Wanted Chords & Tabs

Kittie Chords & Tabs

Version: 1 Type: Tab 0 ratings
1 star 2 stars 3 stars 4 stars 5 stars
comments

What Ive Always Wanted Tab

   
what ive always wanted
Kittie 
this is for all you freaks out there thrash away
DrOp D TuNiNg (C,G,C,F,A,D)
[Intro]
D|----------------------------------------
A|----------------------------------------
F|----------------------------------------
C|-3--3--4--4--0--1----3--3--3--4--4--0--1 
G|-3--3--4--4--0--1----3--3--3--4--4--0--1
C|-3--3--4--4--0--1----3--3--3--4--4--0--1

[Verse]
D|--------------------------------------------
A|--------------------------------------------
F|--------------------------------------------
C|-4--4--4--4--4--4--4--4--4--4--4--4--4--4--0 
G|-4--4--4--4--4--4--4--4--4--4--4--4--4--4--0
C|-4--4--4--4--4--4--4--4--4--4--4--4--4--4--0
[ Tab from: http://www.guitartabs.cc/tabs/k/kittie/what_ive_always_wanted_tab.html ]
D|--------------------------------------------
A|--------------------------------------------
F|--------------------------------------------
C|-3--3--3--3--3--3--3--3--3--3--3--3--3--3--0 
G|-3--3--3--3--3--3--3--3--3--3--3--3--3--3--0
C|-3--3--3--3--3--3--3--3--3--3--3--3--3--3--0
[Chorus]
D|-----------------------------------------------
A|-----------------------------------------------
F|-----------------------------------------------
C|-1--1--4--3--3--3--3--3--1--1--4--3--3--3--3--3 
G|-1--1--4--3--3--3--3--3--1--1--4--3--3--3--3--3
C|-1--1--4--3--3--3--3--3--1--1--4--3--3--3--3--3

D|-----------------------------------------------
A|-----------------------------------------------
F|-----------------------------------------------
C|-1--1--4--3--3--3--3--3--2--2--2--2--0--7--7--7 
G|-1--1--4--3--3--3--3--3--2--2--2--2--0--7--7--7
C|-1--1--4--3--3--3--3--3--2--2--2--2--0--7--7--7
[Pre-Verse For After Bass Solo]
D|-----
A|-----
F|-----
C|-3--3 
G|-3--3
C|-3--3

[Outro]
D|-------------
A|-------------
F|-------------
C|-3/4--0--0--1 
G|-3/4--0--0--1
C|-3/4--0--0--1

if you have any corrections e-mail me at roachjuice@hotmail.com
Comments