Kittie - What I Always Wanted Chords & Tabs

 

What I Always Wanted Chords & Tabs

Kittie Chords & Tabs

Version: 6 Type: Tab 0 ratings
1 star 2 stars 3 stars 4 stars 5 stars
comments

What I Always Wanted Tab

song: what i've always wanted by kittie
tabbed by lokedowg
tuning: drop c
CGCFAd
intro
-----------------|-------------------
-----------------|-------------------
-----------------|-------------------
--3-3--3/4--0--1-|-3-3-3--3/4--0--1--
--3-3--3/4--0--1-|-3-3-3--3/4--0--1--(x12) 
--3-3--3/4--0--1-|-3-3-3--3/4--0--1--
verse
-------------------------------------
-------------------------------------
-------------------------------------
-4-4-4-4-4-4-4-4-4-4-3-3-3-3-3-3-3-3-
-4-4-4-4-4-4-4-4-4-4-3-3-3-3-3-3-3-3-
-4-4-4-4-4-4-4-4-4-4-3-3-3-3-3-3-3-3- 

the pre-chorus is the same as the intro
------------------|
-----------------|
-----------------|
-x-x-4/3-33-3-3--|(x3)
-x-x-4/3-33-3-3--|
-x-x-4/3-33-3-3--|

---------------------------|
---------------------------|
---------------------------|
-x-x-4/3-33-3-3-3/1111/7777|
-x-x-4/3-33-3-3-3/1111/7777|
-x-x-4/3-33-3-3-3/1111/7777|

if you can't find the  strum pattern yourself on the verse,and the chorus you suck 
at guitar then!!! I'm just too damn lazy to tab every bit of the song.
[ Tab from: http://www.guitartabs.cc/tabs/k/kittie/what_i_always_wanted_tab_ver_6.html ]
Comments