Kittie - What I Always Wanted Chords & Tabs

 

What I Always Wanted Chords & Tabs

Kittie Chords & Tabs

Version: 5 Type: Tab 0 ratings
1 star 2 stars 3 stars 4 stars 5 stars
comments

What I Always Wanted Tab

			WHAT I ALWAYS WANTED- KITTIE

Tabbed by: Julio Montanez (Ameripunk15@hotmail.com)
 

Intro

d|--------------------------------------------------------------------|
A|--------------------------------------------------------------------|
F|--------------------------------------------------------------------|
C|-3--3---4-4--0-1---3-3---4-4-0-1---3-3---3--3---4-4--0--1------|
G|-3--3---4-4--0--1---3--3---4-4--0--1---3-3--3--3---4-4--0--1------|
C|-3--3---4-4--0--1---3--3---4-4--0--1---3-3---3--3---4-4--0--1------|

Verse/Chorus
[ Tab from: http://www.guitartabs.cc/tabs/k/kittie/what_i_always_wanted_tab_ver_5.html ]
d|--------------------------------------------------------------------|
A|--------------------------------------------------------------------|
F|--------------------------------------------------------------------|
C|--4-4-4-4-4-4-4-4-4-4-4-4-4-4-4-0-3-3-3-3-3-3-3-3-3-3-3-3-3-3-3-----|
G|--4-4-4-4-4-4-4-4-4-4-4-4-4-4-4-0-3-3-3-3-3-3-3-3-3-3-3-3-3-3-3-----|
C|--4-4-4-4-4-4-4-4-4-4-4-4-4-4-4-0-3-3-3-3-3-3-3-3-3-3-3-3-3-3-3-----| 

Bridge

d|--------------------------------------------------------------------|
A|--------------------------------------------------------------------|
F|--------------------------------------------------------------------|
C|-3/4--0-0--1-0--3/4--0-0--1-0--3/4------------------3/4-------------|
G|-3/4--0-0--1-0--3/4--0-0--1-0--3/4------------------3/4-------------|
C|-3/4--0-0--1-0--3/4--0-0--1-0--3/4-0-0-0-0-1-1-0-0--3/4-0-0-0-0-1-1-|

d|--------------------------------------------------------------------|
A|--------------------------------------------------------------------|
F|--------------------------------------------------------------------|
C|--------------------------------------------------------------------|
G|--------------------------------------------------------------------|
C|-0-0----------------------------------------------------------------|

|==================================================================== |

Comments