Kittie - What I Always Wanted Chords & Tabs

 

What I Always Wanted Chords & Tabs

Kittie Chords & Tabs

Version: 2 Type: Tab 0 ratings
1 star 2 stars 3 stars 4 stars 5 stars
comments

What I Always Wanted Tab

   
Artist:Kittie
Song:What I Always Wanted
Album:Oracle

Tuning: (C,G,C,F,A,D)
 Key: /=slide UP   
      \=slide DOWN  
      %=rest  
      P.M.=Palm Mute
      p=pull-off

   intro 1

 F|---------------------|-------------------|
 C|-3--3--4--4--0--1--%-|--3-3-3-4-4-0-1--%-|
 G|-3--3--4--4--0--1----|--3-3-3-4-4-0-1----|
 C|-3--3--4--4--0--1----|--3-3-3-4-4-0-1----|

   intro 2
                                         3x
 F|--------------------|------------------|
 C|-3--3--4--4--0--1---|-3-3-3-4-4-0-1----|
 G|-3--3--4--4--0--1---|-3-3-3-4-4-0-1----|
 C|-3--3--4--4--0--1---|-3-3-3-4-4-0-1----|

 F|--------------------|------------------|
 C|-3--3--4--4--0--1---|-3-3-3-4-4-0-15\--|
 G|-3--3--4--4--0--1---|-3-3-3-4-4-0-15\--|
 C|-3--3--4--4--0--1---|-3-3-3-4-4-0-15\--|

verses
[ Tab from: http://www.guitartabs.cc/tabs/k/kittie/what_i_always_wanted_tab_ver_2.html ]
 F|------------------------------------|
 C|-4-4-4-4-4-4-4-4-4-4-4-4-4-4-4-4-0--| ___
 G|-4-4-4-4-4-4-4-4-4-4-4-4-4-4-4-4-0--|    |
 C|-4-4-4-4-4-4-4-4-4-4-4-4-4-4-4-4-0--|    |
                                            |- 2x
 F|------------------------------------|    |
 C|-3-3-3-3-3-3-3-3-3-3-3-3-3-3-3-3-0--|    |
 G|-3-3-3-3-3-3-3-3-3-3-3-3-3-3-3-3-0--| ___|
 C|-3-3-3-3-3-3-3-3-3-3-3-3-3-3-3-3-0--|

chorus

   P.M.                 P.M.
 F|--------------------|--------------------|
 C|-1-1-4\3---3-3-3-3--|-1-1-4\3---3-3-3-3--| ___
 G|-1-1-4\3---3-3-3-3--|-1-1-4\3---3-3-3-3--|    |
 C|-1-1-4\3---3-3-3-3--|-1-1-4\3---3-3-3-3--|    |  
                                                 |- 4x 
   P.M.                                          |
 F|--------------------|---------------------|   |
 C|-1-1-4\3---3-3-3-3--|-3-2-2--2-0-7--7--7--|   |
 G|-1-1-4\3---3-3-3-3--|-3-2-2--2-0-7--7--7--| __|
 C|-1-1-4\3---3-3-3-3--|-3-2-2--2-0-7--7--7--|

  *for the palm muted 1's you could just pick scrape*

   bridge
         P.M..           P.M..    4x
 F|---------------------------------|
 C|-3/4--0--0--1p0--3/4--0--0--1p0--|
 G|-3/4--0--0--1p0--3/4--0--0--1p0--|
 C|-3/4--0--0--1p0--3/4--0--0--1p0--|

P.M............     P.M.............
 F|-----------------------------------------|
 C|-3/4-----------------3/4-----------------| 4x
 G|-3/4-0-0-0-0-1-1-0-0-3/4-0-0-0-0-1-1-0-0-|
 C|-3/4-0-0-0-0-1-1-0-0-3/4-0-0-0-0-1-1-0-0-|
 
Comments