Kittie - What I Always Wanted Chords & Tabs

 

What I Always Wanted Chords & Tabs

Kittie Chords & Tabs

Version: 5 Type: Bass Tab 0 ratings
1 star 2 stars 3 stars 4 stars 5 stars
comments

What I Always Wanted Bass Tab

Kittie - What I've always wanted

Intro 
|---------------------|   
|---------------------|
|---------------------| Played the same as the Lead Guitar
|-3-3-3-3-4-4-4-4-0-1-|

Verse 
|--------------------------------|
|--------------------------------|
|--------------------------------|
|-5555555555555550444444444444444|
[ Tab from: http://www.guitartabs.cc/tabs/k/kittie/what_i_always_wanted_btab_ver_5.html ]
Chorus
|-------------------------------------------------------------------|
|-------------------------------------------------------------------|
|-------------------------------------------------------------------|
|2-2-5-4-4-4-4-4--2-2-5-4-4-4-4-4--2-2-5-4-4-4-4-4--0-0-3-3--7-7-7-7|

Bass Interlude
|-----------------------------|
|-----------------------------|
|-----------------------------| This is more or less the same as the Intro
|4--4-5-5-0-1--4-4-4-5-5-0-2(r)|

Outro
|------------|
|------------|
|------------|
|-4-5-0-0-3-0|

Order
Intro 
Verse 
Intro 
Verse 
Chorus
Bass Interlude
Verse
Chorus
Outro

Viola! I aint pinned down the tunning for some gay reason, but this is a pretty
simple song when played a few times, i hope this tabs correct this is my 1st tab
so sorry if its shit, you'll have to listen to the song to know how many times to
play each riff.
Comments