Kittie - What I Always Wanted Chords & Tabs

 

What I Always Wanted Chords & Tabs

Kittie Chords & Tabs

Version: 3 Type: Bass Tab 0 ratings
1 star 2 stars 3 stars 4 stars 5 stars
comments

What I Always Wanted Bass Tab

   
"What I Always Wanted"
   by Kittie
        Transcribed by Rodrigo G. T. (neonecrogenesis)

Intro (Repeat 6x)

G|-----------|-------------|
D|-1-1-2-2-0-|-1-1-1-2-2-0-|
A|--------4--|----------4--|
E|-----------|-------------|

Verse 1 (Repeat 2x)

G|---------------------------------|
D|-222222222222222-111111111111111-|
A|----------------4----------------|
E|---------------------------------|

Chorus ("I thought about...") (Repeat 4x)

G|--------------|---------------|---------------|-------000-0-|
D|----2-1-1-1-1-|-----2-1-1-1-1-|----2-1-1-1-1--|-000-0-------|
A|-4-4----------|-4-4-----------|-4-4-----------|-------------|
E|--------------|---------------|---------------|-------------|

Bass Solo (Repeat 2x)

G|------------|-------------|
D|-1-1-2-2---0|-1-1-1-2-2-0-|
A|---------4--|----------4--|
E|------------|-------------|
[ Tab from: http://www.guitartabs.cc/tabs/k/kittie/what_i_always_wanted_btab_ver_3.html ]
Verse 2 (Repeat 4x)

G|---------------------------------|
D|-222222222222222-111111111111111-|
A|----------------4----------------|
E|---------------------------------|

Chorus ("I thought about...") (Repeat 4x)

G|--------------|---------------|---------------|-------000-0-|
D|----2-1-1-1-1-|-----2-1-1-1-1-|-----2-1-1-1-1-|-000-0-------|
A|-4-4----------|-4-4-----------|-4-4-----------|-------------|
E|--------------|---------------|---------------|-------------|

Outro/Ending ("I got what I wanted...") (Repeat 16x)

G|---------|
D|-1---1-2-|
A|---4-----|
E|---------|

Outro/Ending ("What...I...Got!") 


G|--------------|---------------|--------------|-------000-0-|
D|----2-1-1-1-1-|-----2-1-1-1-1-|----2-1-1-1-1-|-000-0-------|
A|-4-4----------|-4-4-----------|-4-4----------|-------------|
E|--------------|---------------|--------------|-------------|
Comments