Kittie - Until The End Chords & Tabs

 

Until The End Chords & Tabs

Kittie Chords & Tabs

Version: 2 Type: Tab 0 ratings
1 star 2 stars 3 stars 4 stars 5 stars
comments

Until The End Tab

   
-------------------------------------------------------------------------------
			     Until The End - Kittie
-------------------------------------------------------------------------------
Tabbed by: David Vest
Email: slipknot3562@hotmail.com
Comments: copy and paste into note pad if it looks messed up
Tuning: C G C F A D (Low To High) 

  Intro 
D|-------|
A|-------|
F|---7---| 24 Times
C|---7---|
G|---5---|
C|-------|
  Intro (Continued) 2 Times
D|---------------------------------------------------------------------------------------------|
A|---------------------------------------------------------------------------------------------|
F|--7-7-7-7-7-7--101010101010-15-15-15-15-15-15--14-14-14-14-14-14-----------------------------|
C|--x-x-x-x-x-x--x-x-x-x-x-x--x--x--x--x--x--x---x--x--x--x--x--x----888888888888888888888888--|
G|--5-5-5-5-5-5--8-8-8-8-8-8--13-13-13-13-13-13--12-12-12-12-12-12---888888888888888888888888--|
C|-------------------------------------------------------------------888888888888888888888888--|

  End intro  
D|--------|
A|--------|
F|--------|
C|---0----|let ring
G|---0----|
C|---0----|
  
Verse
D|---------------------------------------------------------------------------|
A|---------------------------------------------------------------------------|
F|---------------------------------------------------------------------------|
C|-333333333333033333333333033333333333/666666\444444\-----------------------|
G|-333333333333033333333333033333333333/666666\444444\-----------------------|
C|-333333333333033333333333033333333333/666666\444444\-----------------------|
   ...................................................
D|---------------------------------------------------------------------------|
A|---------------------------------------------------------------------------|
F|---------------------------------------------------------------------------|
C|-333333333333033333333333033333333333/666666\444444\-----------------------|
G|-333333333333033333333333033333333333/666666\444444\-----------------------|
C|-333333333333033333333333033333333333/666666\444444\-----------------------|
   ....................................
D|---------------------------------------------------------------------------|
A|---------------------------------------------------------------------------|
F|---------------------------------------------------------------------------|
C|-333333333333033333333333033333333333/666666\444444\-----------------------|
G|-333333333333033333333333033333333333/666666\444444\-----------------------|
C|-333333333333033333333333033333333333/666666\444444\-----------------------|
  
End Verse
D|-------------------------------------------------|
A|-------------------------------------------------|
F|-------------------------------------------------|
C|-333333333333033333333333033333333333/666666\4---|
G|-333333333333033333333333033333333333/666666\4---|
C|-333333333333033333333333033333333333/666666\4---|
  
Chorus 4 Times
D|---------------------------------------------------------------------------------------------|
A|---------------------------------------------------------------------------------------------|
F|--7-7-7-7-7-7--101010101010-15-15-15-15-15-15--14-14-14-14-14-14-----------------------------|
C|--x-x-x-x-x-x--x-x-x-x-x-x--x--x--x--x--x--x---x--x--x--x--x--x----888888888888888888888888--|
G|--5-5-5-5-5-5--8-8-8-8-8-8--13-13-13-13-13-13--12-12-12-12-12-12---888888888888888888888888--|
C|-------------------------------------------------------------------888888888888888888888888--|

End Chorus
D|--------|
A|--------|
F|--------|
C|---0----|let ring
G|---0----|
C|---0----|
[ Tab from: http://www.guitartabs.cc/tabs/k/kittie/until_the_end_tab_ver_2.html ]
Verse
D|---------------------------------------------------------------------------|
A|---------------------------------------------------------------------------|
F|---------------------------------------------------------------------------|
C|-333333333333033333333333033333333333/666666\444444\-----------------------|
G|-333333333333033333333333033333333333/666666\444444\-----------------------|
C|-333333333333033333333333033333333333/666666\444444\-----------------------|
   ...................................................
D|---------------------------------------------------------------------------|
A|---------------------------------------------------------------------------|
F|---------------------------------------------------------------------------|
C|-333333333333033333333333033333333333/666666\444444\-----------------------|
G|-333333333333033333333333033333333333/666666\444444\-----------------------|
C|-333333333333033333333333033333333333/666666\444444\-----------------------|
   ....................................
D|---------------------------------------------------------------------------|
A|---------------------------------------------------------------------------|
F|---------------------------------------------------------------------------|
C|-333333333333033333333333033333333333/666666\444444\-----------------------|
G|-333333333333033333333333033333333333/666666\444444\-----------------------|
C|-333333333333033333333333033333333333/666666\444444\-----------------------|
  
End Verse
D|-------------------------------------------------|
A|-------------------------------------------------|
F|-------------------------------------------------|
C|-333333333333033333333333033333333333/666666\4---|
G|-333333333333033333333333033333333333/666666\4---|
C|-333333333333033333333333033333333333/666666\4---|

Chorus 4 Times
D|---------------------------------------------------------------------------------------------|
A|---------------------------------------------------------------------------------------------|
F|--7-7-7-7-7-7--101010101010-15-15-15-15-15-15--14-14-14-14-14-14-----------------------------|
C|--x-x-x-x-x-x--x-x-x-x-x-x--x--x--x--x--x--x---x--x--x--x--x--x----888888888888888888888888--|
G|--5-5-5-5-5-5--8-8-8-8-8-8--13-13-13-13-13-13--12-12-12-12-12-12---888888888888888888888888--|
C|-------------------------------------------------------------------888888888888888888888888--|

Bridge 3 times
D|----------------------------|
A|----------------------------|
F|----------------------------|
C|-000000333333888888777777---|
G|-000000333333888888777777---|
C|-000000333333888888777777---|
   ........................
End Bridge
D|-----------------------|
A|-----------------------|
F|-----------------------|
C|-0000003333338888887---|
G|-0000003333338888887---|
C|-0000003333338888887---|
   ............

Chorus 4 Times
D|---------------------------------------------------------------------------------------------|
A|---------------------------------------------------------------------------------------------|
F|--7-7-7-7-7-7--101010101010-15-15-15-15-15-15--14-14-14-14-14-14-----------------------------|
C|--x-x-x-x-x-x--x-x-x-x-x-x--x--x--x--x--x--x---x--x--x--x--x--x----888888888888888888888888--|
G|--5-5-5-5-5-5--8-8-8-8-8-8--13-13-13-13-13-13--12-12-12-12-12-12---888888888888888888888888--|
C|-------------------------------------------------------------------888888888888888888888888--|

End Chorus
D|--------|
A|--------|
F|--------|
C|---0----|let ring
G|---0----|
C|---0----|



| /  slide up
| \  slide down
| h  hammer-on
| p  pull-off
| ~  vibrato
| +  harmonic
| .  Mute note
===============================================================================
Comments