Kittie - Trippin Chords & Tabs

 

Trippin Chords & Tabs

Kittie Chords & Tabs

Version: 2 Type: Bass Tab 0 ratings
1 star 2 stars 3 stars 4 stars 5 stars
comments

Trippin Bass Tab

   
Artist: KiTTiE
Song: Trippin'
Album: SPiT
Tabbed By: Audrina (JimmyUrine@bigfoot.com)

Tuning: C (Low to High: CGCF)


Intro: x4

F|------------------
C|------------------
G|------------------
C|--00-0-12--00-0-13

On the 4th time let 13 ring a little bit longer.


Verse: x8

F|
C|
G|
C|--*13\0*--0-0--0-5h7-0--8-9

** First time only.


Chorus: x2
[ Tab from: http://www.guitartabs.cc/tabs/k/kittie/trippin_btab_ver_2.html ]
F|------------------------------------------
C|------------------------------------------
G|------------------------------------------
C|--07-07-07-07-8888-07-07-07-07--8--8--8---


Bridge:

F|
C|
G|
C|--*0~*---0---0---0---0-0-0-0

** First time only. When Morgan starts singing, just speed it up. This song is 
really fun to play and I hope you think it's rad, too.
Comments