Kittie - Sugar Chords & Tabs

 

Sugar Chords & Tabs

Kittie Chords & Tabs

Version: 1 Type: Tab 0 ratings
1 star 2 stars 3 stars 4 stars 5 stars
comments

Sugar Tab

##################################################################################
# This file is the author's own work and represents their interpretation of the  #
# song. You may only use this file for private study, scholarship, or research.  #
##################################################################################

Kittie *Sugar*

From the album *Until the End*

Tabbed by mephisto
mephisto1404@wanadoo.fr

Low "c" tunning
CGCFAD


*Intro

D|---------------------------------------------------|
A|---------------------------------------------------|
F|---------------------------------------------------|
C|-000-0-00-0-5/4-3\4-000-0-00-0-5/4-3\4-0-0000-0000-|X8
G|-000-0-00-0-5/4-3\4-000-0-00-0-5/4-3\4-0-0000-0000-|
C|-000-0-00-0-5/4-3\4-000-0-00-0-5/4-3\4-0-0000-0000-|
                                       PM----------->

*Riff 1
 
D|-------------------------------------------------|   |-------0---|
A|-------------------------------------------------|   |-------3---|
F|-------------------------------------------------|   |-------2---|
C|-000-0-3/4-000-0-5/4-3\4-000-0-3/4-000-0-5/4-3\4-|X4 |-0-----0---|
G|-000-0-3/4-000-0-5/4-3\4-000-0-3/4-000-0-5/4-3\4-|   |-0---------|
C|-000-0-3/4-000-0-5/4-3\4-000-0-3/4-000-0-5/4-3\4-|   |-0---------|


*Riff 2

Guitar 1
D|-------------------------------------|
A|-------------------------------------|
F|-------------------------------------|
C|-000--000-000-0--000--000--000-000-0-|X5
G|-000--000-000-0--000--000--000-000-0-|
C|-000--000-000-0--000--000--000-000-0-|
[ Tab from: http://www.guitartabs.cc/tabs/k/kittie/sugar_tab.html ]
Guitar 2
D|-------------------------------------|
A|-------------------------------------|
F|-------------------------------------|
C|---------00-1-4-00-3-4-00-1-4-00-2-3-|
G|-------------------------------------|
C|-------------------------------------|
 PM----------------------------------->|



*Riff 3

D|---------------------------------------------|   |--------------------------|
A|---------------------------------------------|   |--------------------------|
F|---------3---------3-3---------3-------3-3-3-|   |---------3----------3-3-3-|
C|---------3---------3-3---------3-------3-3-3-|X4 |---------3----------3-3-3-|X8
G|---------1---------1-1---------1-------1-1-1-|   |---------1----------1-1-1-|
C|-0-2-3-0---0-2-3-0-----0-2-3-0---0-2-3-------|   |-0-2-3-0----0-2-3-0-------|


Riff 4

D|-------------------|
A|-------------------|
F|-------------------|
C|-3-333-4-0---------|X4
G|-3-333-4-0---------|
C|-3-333-4-0---------|
  
 |Give me |


*Repeat Riff 2


*Repeat Riff 3


*Riff 5

D|--------------------------------------------------------------------|
A|--------------------------------------------------------------------|
F|--------------------------------------------------------------------|
C|-2-----1-----0-0-0-0-0-0-0-00-0-0-0-0-0-0-0-0-000-000-0-1-2-0-1-2-0-|X3
G|-2-----1-----0-0-0-0-0-0-0-00-0-0-0-0-0-0-0-0-000-000-0-1-2-0-1-2-0-|
C|-2-----1-----0-0-0-0-0-0-0-00-0-0-0-0-0-0-0-0-000-000-0-1-2-0-1-2-0-|


*End

D|------------------------|
A|------------------------|
F|------------------------|
C|-0--1-2-0--1-2-0--------|
G|-0--1-2-0--1-2-0--------|
C|-0--1-2-0--1-2-0--------|
Comments