Kittie - Spit Chords & Tabs

 

Spit Chords & Tabs

Kittie Chords & Tabs

Version: 5 Type: Tab 0 ratings
1 star 2 stars 3 stars 4 stars 5 stars
comments

Spit Tab

   
Band - Kittie
Album - Spit

Tuning: Drop D, Down 1 whole step - C G C F A D

Key
* - harmonic
/ - slide
x - dampen
~ - hold note
. - palm mute

Track list:

01 - Spit
02 - Charlotte
03 - Suck
04 - Do You Think I'm a Whore
05 - Brackish
06 - Jonny
07 - Trippin'
08 - Raven
09 - Get Off
10 - Choke
11 - Paperdoll
12 - Immortal

Let's go!

---------
01 - Spit
---------

|----------------|
|----------------|
|----------------|
|----------------| x7
|----------------|
|0-2-1-0-1-2-0-2-|

|-----------------|
|-----------------|
|-----------------|
|--------0--0--0--|
|--------0--0--0--|
|0-2-1-0-0--0--0--|
         .  .  .

|----------------|
|----------------|
|----------------|
|0-2-1-0-1-2-0-2-| x9
|0-2-1-0-1-2-0-2-|
|0-2-1-0-1-2-0-2-|

|----------------|----------------|
|----------------|----------------|
|----------------|----------------|
|0-2-1-0-1-2-0---|0-2-1-0-1-2-0-2-| x3
|0-2-1-0-1-2-0---|0-2-1-0-1-2-0-2-|
|0-2-1-0-1-2-0---|0-2-1-0-1-2-0-2-|

|----------------|
|----------------|
|----------------|
|0-2-1-0-1-2-0---|
|0-2-1-0-1-2-0---|
|0-2-1-0-1-2-0---|

|------------------|
|------------------|
|------------------|
|22-22-22-22-2-0-1-| x4
|22-22-22-22-2-0-1-|
|22-22-22-22-2-0-1-|
 .. .  .. .  .

|----------------|   
|----------------|   
|----------------|   
|----------------| x4
|----------------|   
|0-2-1-0-1-2-0-2-|   

|----------------|   
|----------------|   
|----------------|   
|0-2-1-0-1-2-0-2-| x18
|0-2-1-0-1-2-0-2-|   
|0-2-1-0-1-2-0-2-|   

|----------------|----------------|   
|----------------|----------------|   
|----------------|----------------|   
|0-2-1-0-1-2-0---|0-2-1-0-1-2-0-2-| x3
|0-2-1-0-1-2-0---|0-2-1-0-1-2-0-2-|   
|0-2-1-0-1-2-0---|0-2-1-0-1-2-0-2-|   

|----------------|
|----------------|
|----------------|
|0-2-1-0-1-2-0---|
|0-2-1-0-1-2-0---|
|0-2-1-0-1-2-0---|

|------------------|   
|------------------|   
|------------------|   
|22-22-22-22-2-0-1-| x4
|22-22-22-22-2-0-1-|   
|22-22-22-22-2-0-1-|   

|--------------------|
|--------------------|
|11---11---11---11---|
|-X----X----X----X---| x4
|-9----9----9----9---|
|--------------------|

|------------------|------|-----------------|
|------------------|------|-----------------|
|------------------|-play-|-------------11~~|
|------------------|--x3--|--------------X~~|
|------------------|------|--------------9~~|
|01-0-1-0-1-0-3333-|------|01-0-1-0-1-0-----|
 .. . . . . . ....         .. . . . . .

|------------------|
|------------------|
|------------------|
|01-0-1-0-1-0-3333-| x8
|01-0-1-0-1-0-3333-|
|01-0-1-0-1-0-3333-|

|----------------| 
|----------------| 
|----------------| 
|----------------| 
|----------------| 
|0-2-1-0-1-2-0-2-| 
                   
|-----------------|
|-----------------|
|-----------------|
|--------0--0--0--|
|--------0--0--0--|
|0-2-1-0-0--0--0--|
         .  .  .   
End.

--------------
02 - Charlotte
--------------

|----------------|
|----------------|
|----------------|
|--------4-4-4-4-| x8
|--------4-4-4-4-|
|--------4-4-4-4-|

|----------------|
|----------------|
|----------------|
|0---0-1/4-4-4-4-| x16
|0---0-1/4-4-4-4-|
|0---0-1/4-4-4-4-|

|---------------------------|
|---------------------------|
|---------------------------|
|---------------------------| x2
|---------------------------|
|3-2-1-2--1-2--1-2--1-2-3-3-|

|---------------------------|
|---------------------------|
|---------------------------|
|3-2-1-2--1-2--1-2--1-2-3-3-| x8
|3-2-1-2--1-2--1-2--1-2-3-3-|
|3-2-1-2--1-2--1-2--1-2-3-3-|

|----------------|    
|----------------|    
|----------------|    
|0---0-1/4-4-4-4-| x16
|0---0-1/4-4-4-4-|    
|0---0-1/4-4-4-4-|    

|---------------------------|   
|---------------------------|   
|---------------------------|   
|---------------------------| x2
|---------------------------|   
|3-2-1-2--1-2--1-2--1-2-3-3-|   
                                
|---------------------------|   
|---------------------------|   
|---------------------------|   
|3-2-1-2--1-2--1-2--1-2-3-3-| x8
|3-2-1-2--1-2--1-2--1-2-3-3-|   
|3-2-1-2--1-2--1-2--1-2-3-3-|   

|------------|
|------------|
|------------|
|0~~~~~~~~~~~|
|0~~~~~~~~~~~|
|0~~~~~~~~~~~|

	Guitar 1
|---------------------------------------------------------------|
|---------------------------------------------------------------|
|---------------------------------------------------------------|
|7--7-7-7-7/11--11-11-11-12-12-12-5--5--5--5--5--5--5-5-5-5-5-5-|
|5--5-5-5-5/-9---9--9--9-10-10-10-5--5--5--5--5--5--5-5-5-5-5-5-|
|---------------------------------5--5--5--5--5--5--5-5-5-5-5-5-|\
	Guitar 2						  | x10
|---------------------------------------------------------------|/
|---------------------------------------------------------------|
|---------------------------------------------------------------|
|---------------------------------5~~~~~~~~~~~~~~~~~~~~~~~~~~~~~|
|---------------------------------5~~~~~~~~~~~~~~~~~~~~~~~~~~~~~|
|---------------------------------5~~~~~~~~~~~~~~~~~~~~~~~~~~~~~|

|--------------------------------|
|--------------------------------|
|7777888877778888----------------|
|XXXXXXXXXXXXXXXX----------------| x4
|55556666555566660-0-1-0-1-0-1-0-|
|----------------0-0-1-0-1-0-1-0-|
                 . . . . . . . .
End.

---------
03 - Suck
---------

	(guitar 1)
|------------------------------|------|----------------|
|------------------------------|------|----------------|
|------------------------------|-play-|----------------|
|0-6-0-7-8-0-6-0-6-0-7-8-8-8-8-|--3x--|0-6-0-7-8-0-----|
|0-6-0-7-8-0-6-0-6-0-7-8-8-8-8-|------|0-6-0-7-8-0-5~~~|
|0-6-0-7-8-0-6-0-6-0-7-8-8-8-8-|------|0-6-0-7-8-0-----|
   . . . . . . . . . . . . . .           . . . . .
	(guitar 2)
|------------------------------|------|----------------|
|------------------------------|------|----------------|
|------------------------------|-play-|----------------|
|----------------------1-1-1-1-|--3x--|----------------|
|----------------------1-1-1-1-|------|----------------|
|----------------------1-1-1-1-|------|----------------|
                       . . . .

|------------------------------|
|------------------------------|
|------------------------------|
|0-6-0-7-8-0-6-0-6-0-7-8-8-8-8-| x8
|0-6-0-7-8-0-6-0-6-0-7-8-8-8-8-|
|0-6-0-7-8-0-6-0-6-0-7-8-8-8-8-|

|---------------------|
|---------------------|
|----9~~~~~~~12~~~~~~~|
|(0)-X~~~~~~~-X~~~~~~~| x5
|(0)-7~~~~~~~10~~~~~~~|
|(0)------------------|

|---------------------------------------------|
|---------------------------------------------|
|---------------------------------------------|
|0-2-0-2-0--000-2--000-2--0-2-0-2-0-2-0-2-3~~~| x2
|0-2-0-2-0--000-2--000-2--0-2-0-2-0-2-0-2-3~~~|
|0-2-0-2-0--000-2--000-2--0-2-0-2-0-2-0-2-3~~~|
            ... .  ... .
|------------------------------|   
|------------------------------|   
|------------------------------|   
|0-6-0-7-8-0-6-0-6-0-7-8-8-8-8-| x8
|0-6-0-7-8-0-6-0-6-0-7-8-8-8-8-|   
|0-6-0-7-8-0-6-0-6-0-7-8-8-8-8-|   

|---------------------|   
|---------------------|   
|----9~~~~~~~12~~~~~~~|   
|(0)-X~~~~~~~-X~~~~~~~| x5
|(0)-7~~~~~~~10~~~~~~~|   
|(0)------------------|   

|---------------------------------------------|   
|---------------------------------------------|   
|---------------------------------------------|   
|0-2-0-2-0--000-2--000-2--0-2-0-2-0-2-0-2-3~~~| x2
|0-2-0-2-0--000-2--000-2--0-2-0-2-0-2-0-2-3~~~|   
|0-2-0-2-0--000-2--000-2--0-2-0-2-0-2-0-2-3~~~|   

|------------------------------|   
|------------------------------|   
|------------------------------|   
|0-6-0-7-8-0-6-0-6-0-7-8-8-8-8-| x8
|0-6-0-7-8-0-6-0-6-0-7-8-8-8-8-|   
|0-6-0-7-8-0-6-0-6-0-7-8-8-8-8-|   

|----------------------------|
|----------------------------|
|----------------------------|
|0-0-0-0-6-0-0-0-0-0-0-8--7--| x8
|0-0-0-0-6-0-0-0-0-0-0-6--5--|
|0-0-0-0-6-0-0-0-0-0-0-------|

End. 

-----------------------------
04 - Do You Think I'm a Whore
-----------------------------

|--------------------|
|--------------------|
|--------------------|
|2-2-3-0-2-2-2-3-2-0-| x8
|2-2-3-0-2-2-2-3-2-0-|
|2-2-3-0-2-2-2-3-2-0-|

|----------------------------------|
|----------------------------------|
|----------------------------------|
|----------------------------------| x8
|----------------------------------|
|3-0-3-0-2-3-0-3-0-3-0-2-3-4-4-4-4-|
                            * * * *

|---------------------|
|---------------------|
|---------------------|
|4-5-4--3--4-3--3-4-7-| x8
|4-5-4--3--4-3--3-4-7-|
|4-5-4--3--4-3--3-4-7-|

|--------------------|
|--------------------|
|--------------------|
|2-2-3-0-2-2-2-3-2-0-| x8
|2-2-3-0-2-2-2-3-2-0-|
|2-2-3-0-2-2-2-3-2-0-|

|----------------------------------|
|----------------------------------|
|----------------------------------|
|----------------------------------| x8
|----------------------------------|
|3-0-3-0-2-3-0-3-0-3-0-2-3-4-4-4-4-|
                            * * * *

|--------------------|
|--------------------|
|--------------------| till
|2-2-3-0-2-2-2-3-2-0-| fade
|2-2-3-0-2-2-2-3-2-0-|
|2-2-3-0-2-2-2-3-2-0-|

End.

-------------
05 - Brackish
-------------

|--------------------------------|------|--------------------|
|----------17----------17-----18-|------|--------------------|
|15-15--15----15-15-15-----15----|-play-|15--15--15-15-15-15-|
|--------------------------------|--3x--|--------------------|
|--------------------------------|------|--------------------|
|--------------------------------|------|--------------------|

|----------------------------|
|----------------------------|
|----------------------------|
|0-1--0-1--0-1--0-1--6-6-6-6-| x8
|0-1--0-1--0-1--0-1--6-6-6-6-|
|0-1--0-1--0-1--0-1--6-6-6-6-|

|----------------------|
|----------------------|
|----------------------|
|0-0-1-0-0~~~0-0-1-0-0-| x4
|0-0-1-0-0~~~0-0-1-0-0-|
|0-0-1-0-0~~~0-0-1-0-0-|
 . .   .     . .   . .

|----------------------------|
|----------------------------|
|----------------------------|
|0-1--0-1--0-1--0-1--6-6-6-6-| x8
|0-1--0-1--0-1--0-1--6-6-6-6-|
|0-1--0-1--0-1--0-1--6-6-6-6-|

|----------------------|
|----------------------|
|----------------------|
|0-0-1-0-0~~~0-0-1-0-0-| x4
|0-0-1-0-0~~~0-0-1-0-0-|
|0-0-1-0-0~~~0-0-1-0-0-|
 . .   .     . .   . .

|----------------------------|
|----------------------------|
|----------------------------|
|0-1--0-1--0-1--0-1--6-6-6-6-| x8
|0-1--0-1--0-1--0-1--6-6-6-6-|
|0-1--0-1--0-1--0-1--6-6-6-6-|

|----|
|----|
|----|
|1-0-| x8
|1-0-|
|1-0-|

|----------------------------|
|----------------------------|
|----------------------------|
|0-1--0-1--0-1--0-1--6-6-6-6-| x8
|0-1--0-1--0-1--0-1--6-6-6-6-|
|0-1--0-1--0-1--0-1--6-6-6-6-|

|-----------------------0--|
|--3-------3----3-------5--|
|--5-------5----5----------|
|--------------------------| x4
|0---0---0----0---0---0----|
|0---0---0----0---0---0----|
 .   .   .    .   .   .

|----------------------------|
|----------------------------|
|----------------------------| till
|0-1--0-1--0-1--0-1--6-6-6-6-| fade
|0-1--0-1--0-1--0-1--6-6-6-6-|
|0-1--0-1--0-1--0-1--6-6-6-6-|

End.

----------
06 - Jonny
----------

|----------------|
|----------------|
|----------------|
|1-0-0-1-0-0-1-0-| x4
|1-0-0-1-0-0-1-0-|
|1-0-0-1-0-0-1-0-|
   . .   . .   .

|--------------------------------|
|--------------------------------|
|--------------------------------|
|1-0-0-1-0-0-1-0-1-0-0-1-0-0-0-4-| x4
|1-0-0-1-0-0-1-0-1-0-0-1-0-0-0-4-|
|1-0-0-1-0-0-1-0-1-0-0-1-0-0-0-4-|
   . .   . .   .   . .   . . .

|----------------------------|
|----------------------------|
|----------------11-11-11-11-|
|5-4-0-6-4-7-5-4--X--X--X--X-| x4
|5-4-0-6-4-7-5-4--9--9--9--9-|
|5-4-0-6-4-7-5-4-------------|

|--------------------------------|
|--------------------------------|
|--------------------------------|
|1-0-0-1-0-0-1-0-1-0-0-1-0-0-0-4-| x4
|1-0-0-1-0-0-1-0-1-0-0-1-0-0-0-4-|
|1-0-0-1-0-0-1-0-1-0-0-1-0-0-0-4-|
   . .   . .   .   . .   . . .

|--------------------------------|
|--------------------------------|
|--------------------------------|
|0-0-0-0-0-0-0-0-7-0-0-7-0-0-7h8-| x4
|0-0-0-0-0-0-0-0-7-0-0-7-0-0-7h8-|
|0-0-0-0-0-0-0-0-7-0-0-7-0-0-7h8-|
 . . . . . . . .   . .   . .

|--------------------------------|
|--------------------------------|
|--------------------------------|
|1-0-0-1-0-0-1-0-1-0-0-1-0-0-0-4-| x4
|1-0-0-1-0-0-1-0-1-0-0-1-0-0-0-4-|
|1-0-0-1-0-0-1-0-1-0-0-1-0-0-0-4-|
   . .   . .   .   . .   . . .

|----------------------------|
|----------------------------|
|----------------11-11-11-11-|
|5-4-0-6-4-7-5-4--X--X--X--X-|
|5-4-0-6-4-7-5-4--9--9--9--9-|
|5-4-0-6-4-7-5-4-------------|

|----------------|
|----------------|
|----------------|
|----------------| x4
|----------------|
|4-3-0-5-4-0-4-0-|
 . . . . . . . .

|----------------|
|----------------|
|----------------|
|4-3-0-5-4-0-4-0-| x4
|4-3-0-5-4-0-4-0-|
|4-3-0-5-4-0-4-0-|

|--------------------------------|
|--------------------------------|
|--------------------------------|
|1-0-0-1-0-0-1-0-1-0-0-1-0-0-0-4-| x4
|1-0-0-1-0-0-1-0-1-0-0-1-0-0-0-4-|
|1-0-0-1-0-0-1-0-1-0-0-1-0-0-0-4-|
   . .   . .   .   . .   . . .

|----------------------------|
|----------------------------|
|----------------11-11-11-11-|
|5-4-0-6-4-7-5-4--X--X--X--X-|
|5-4-0-6-4-7-5-4--9--9--9--9-|
|5-4-0-6-4-7-5-4-------------|

End.

-------------
07 - Trippin'
-------------

|--------------------|
|--------------------|
|-------7---------8--|
|-------X---------X--| x4
|0-0--0-5--0-0--0-6--|
|0-0--0----0-0--0----|
 . .  .    . .  .

|----------------|
|----------------|
|------------3/4-|
|0-0-XX0-1-1-X/X-| x8
|0-0-XX0-1-1-1/2-|
|0-0-XX0-1-1-----|

|------------------------------------------------------------|
|------------------------------------------------------------|
|------------------------------------------------14--14--14--|
|5-7--5-7--5-7--5-7--8-8-8-8-5-7--5-7--5-7--5-7---X---X---X--| x2
|5-7--5-7--5-7--5-7--8-8-8-8-5-7--5-7--5-7--5-7--12--12--12--|
|5-7--5-7--5-7--5-7--8-8-8-8-5-7--5-7--5-7--5-7--------------|

|----------------|
|----------------|
|------------3/4-|
|0-0-XX0-1-1-X/X-| x8
|0-0-XX0-1-1-1/2-|
|0-0-XX0-1-1-----|

|------------------------------------------------------------|
|------------------------------------------------------------|
|------------------------------------------------14--14--14--|
|5-7--5-7--5-7--5-7--8-8-8-8-5-7--5-7--5-7--5-7---X---X---X--| x2
|5-7--5-7--5-7--5-7--8-8-8-8-5-7--5-7--5-7--5-7--12--12--12--|
|5-7--5-7--5-7--5-7--8-8-8-8-5-7--5-7--5-7--5-7--------------|

|----|
|----|
|----|
|0~~~|
|0~~~|
|0~~~|

|----------------------------------------------------------------|
|----------------------------------------------------------------|
|----------------------------------------------------------------|
|----------------------------------------------------------------| x4
|----------------------------------------------------------------|
|7-8-0-7-8-0-7-8-0-7-8-0-7-8-0-7-8-0-7-8-0-7-8-0-7-8-0-7-8-0-7-6-|
 . . . . . . . . . . . . . . . . . . . . . . . . . . . . . . . .
[ Tab from: http://www.guitartabs.cc/tabs/k/kittie/spit_tab_ver_5.html ]
|------------------------------------------------------------|
|------------------------------------------------------------|
|------------------------------------------------14--14--14--|
|5-7--5-7--5-7--5-7--8-8-8-8-5-7--5-7--5-7--5-7---X---X---X--| x2
|5-7--5-7--5-7--5-7--8-8-8-8-5-7--5-7--5-7--5-7--12--12--12--|
|5-7--5-7--5-7--5-7--8-8-8-8-5-7--5-7--5-7--5-7--------------|

|----|
|----|
|----|
|0~~~|
|0~~~|
|0~~~|

End.

----------
08 - Raven
----------

|---------------------------------------------|
|---------------------------------------------|
|---------------------------------------------|
|2-2-X-X--------------------------------------| x4
|2-2-X-X--------------------------------------|
|2-2-X-X--------------------------------------|

|---------------------------------------------|
|---------------------------------------------|
|---------------------------------------------|
|2-2-5-5-5--2-2-5-5-5--2-2-5-5-5--2-2-2-3-2-0-| x4
|2-2-5-5-5--2-2-5-5-5--2-2-5-5-5--2-2-2-3-2-0-|
|2-2-5-5-5--2-2-5-5-5--2-2-5-5-5--2-2-2-3-2-0-|
     * * *      * * *      * * *      . . . .

|-----------|
|-----------|
|-----------|
|5--0-5--1--| x8
|5--0-5--1--|
|5--0-5--1--|

|---------------------------------------------|
|---------------------------------------------|
|---------------------------------------------|
|2-2-5-5-5--2-2-5-5-5--2-2-5-5-5--2-2-2-3-2-0-| x4
|2-2-5-5-5--2-2-5-5-5--2-2-5-5-5--2-2-2-3-2-0-|
|2-2-5-5-5--2-2-5-5-5--2-2-5-5-5--2-2-2-3-2-0-|
     * * *      * * *      * * *      . . . .

|-----------|
|-----------|
|-----------|
|5--0-5--1--| x8
|5--0-5--1--|
|5--0-5--1--|

|---------------------------|------|------------------------|
|---------------------------|------|------------------------|
|---------------------------|-play-|------------------------|
|---------------------------|--x3--|--------------------5~~~| x4
|0-0-0-0-0---0-0-0-0-0---0--|------|0-0-0-0-0---0-0-0-0-5~~~|
|0-0-0-0-0---0-0-0-0-0---0--|------|0-0-0-0-0---0-0-0-0-5~~~|
 . . . . .   . . . . .   . . .           . . . . .   . . . . *

|-----------|
|-----------|
|-----------|
|5--0-5--1--| x8
|5--0-5--1--|
|5--0-5--1--|

|-----------------------------|
|-----------------------------|
|-----------------------------|
|1-0-1--1-0-1--1-0-1-3-1-0-1--| x8
|1-0-1--1-0-1--1-0-1-3-1-0-1--|
|1-0-1--1-0-1--1-0-1-3-1-0-1--|

|----|
|----|
|----|
|5~~~|
|5~~~|
|5~~~|
 *

End.

------------
09 - Get off
------------

	(guitar 1)
|------------------------------------------------------|
|------------------------------------------------------|
|------------------------------------------------------|
|3~~~3-1~~~----------1-3~~~----------3-1~~~----------1-|
|3~~~3-1~~~----------1-3~~~----------3-1~~~----------1-|
|3~~~3-1~~~----------1-3~~~----------3-1~~~----------1-|
	(guitar 2)
|0-------0---0---0-------0---0---0-------0---0---0-----|
|6---5-4---4---4---4-5-6---6---6---6-5-4---4---4---4-5-|
|------------------------------------------------------|
|------------------------------------------------------|
|------------------------------------------------------|
|------------------------------------------------------|

|--------------------------------------|
|--------------------------------------|
|--------------------------------------|
|0~~~4-4-4-4-4-444---0~~~4-4-4-4-5-----| x4
|0~~~4-4-4-4-4-444---0~~~4-4-4-4-5-----|
|0~~~4-4-4-4-4-444---0~~~4-4-4-4-5-----|
     * * * * * ***       * * * * *

|--------------------|
|--------------------|
|----7-----7---------|
|----X-----X---------| x8
|----5-----5---------|
|0-0---000---0-0-0-0-|
 . .   ...   . . . .

|--------------------------------------|
|--------------------------------------|
|--------------------------------------|
|0~~~4-4-4-4-4-444---0~~~4-4-4-4-5-----| x4
|0~~~4-4-4-4-4-444---0~~~4-4-4-4-5-----|
|0~~~4-4-4-4-4-444---0~~~4-4-4-4-5-----|
     * * * * * ***       * * * * *

|--------------------|
|--------------------|
|----7-----7---------|
|----X-----X---------| x8
|----5-----5---------|
|0-0---000---0-0-0-0-|
 . .   ...   . . . .

|----------------|
|----------------|
|----------------|
|2-0-2-0-2-3-2-0-| x4
|2-0-2-0-2-3-2-0-|
|2-0-2-0-2-3-2-0-|

PM...............|

|----------------|
|----------------|
|----------------|
|2-0-2-0-2-3-2-0-| x8
|2-0-2-0-2-3-2-0-|
|2-0-2-0-2-3-2-0-|

|-----------|
|-----------|
|-----------|
|00001--0-2-|
|00001--0-2-|
|00001--0-2-|
 ....   .

	(guitar 1)
|------------------------------------------------------|
|------------------------------------------------------|
|------------------------------------------------------|
|3~~~3-1~~~----------1-3~~~----------3-1~~~----------1-|
|3~~~3-1~~~----------1-3~~~----------3-1~~~----------1-|
|3~~~3-1~~~----------1-3~~~----------3-1~~~----------1-|
	(guitar 2)
|0-------0---0---0-------0---0---0-------0---0---0-----|
|6---5-4---4---4---4-5-6---6---6---6-5-4---4---4---4-5-|
|------------------------------------------------------|
|------------------------------------------------------|
|------------------------------------------------------|
|------------------------------------------------------|

End.

----------
10 - Choke
----------

|--------------------------------|
|--------------------------------|
|--------------------------------|
|0-0-0-0-1---0-0-0-0-1---0-0-2---| x2
|0-0-0-0-1---0-0-0-0-1---0-0-2---|
|0-0-0-0-1---0-0-0-0-1---0-0-2---|
 . . . . .   . . . . .   . . .

	(guitar 1)
|--------------------------------|
|--------------------------------|
|--------------------------------|
|0-0-0-0-1---0-0-0-0-1---0-0-2---| 
|0-0-0-0-1---0-0-0-0-1---0-0-2---|
|0-0-0-0-1---0-0-0-0-1---0-0-2---|\
 . . . . .   . . . . .   . . .     \
				    |2
	(guitar 2)		   /
|--------------------------------|/
|--------------------------------|
|7-7-7-7-8---7-7-7-7-8---7-7-9---|
|X-X-X-X-X---X-X-X-X-X---X-X-X---|
|5-5-5-5-6---5-5-5-5-6---5-5-7---|
|--------------------------------|

|--------------------------------|
|--------------------------------|
|--------------------------------|
|0-0-0-0-1---0-0-0-0-1---0-0-2---| x3
|0-0-0-0-1---0-0-0-0-1---0-0-2---|
|0-0-0-0-1---0-0-0-0-1---0-0-2---|
 . . . . .   . . . . .   . . .

|--------------------------------|
|--------------------------------|
|--------------------------------|
|--------------------------------|
|3-------2-------1-------0-------|
|3-------2-------1-------0-------|
 .       .       .       .

	(guitar 1)
|--------------------------------|
|--------------------------------|
|--------------------------------|
|0-0-0-0-1---0-0-0-0-1---0-0-2---| 
|0-0-0-0-1---0-0-0-0-1---0-0-2---|
|0-0-0-0-1---0-0-0-0-1---0-0-2---|\
 . . . . .   . . . . .   . . .     \
				    |3
	(guitar 2)		   /
|--------------------------------|/
|--------------------------------|
|7-7-7-7-8---7-7-7-7-8---7-7-9---|
|X-X-X-X-X---X-X-X-X-X---X-X-X---|
|5-5-5-5-6---5-5-5-5-6---5-5-7---|
|--------------------------------|

|--------------------------------|
|--------------------------------|
|--------------------------------|
|--------------------------------|
|3-------2-------1-------0-------|
|3-------2-------1-------0-------|
 .       .       .       .

|--------------------------------|
|--------------------------------|
|-------8/7~~~~~~~~~~~~~~~~~~~~~~|
|-------X/X----------------------|
|(0)----6/5~~~~~~~~~~~~~~~~~~~~~~|
|(0)-----------------------------|

|--------------------------------|
|--------------------------------|
|----3-------3-------4-------4---|
|--------------------------------| x4
|1-1---1-1-1---1-2-2---2-2-2---2-|
|1-1---1-1-1---1-2-2---2-2-2---2-|
 . .   . . .   . . .   . . .   .

|--------------------------------|
|--------------------------------|
|--------------------------------|
|0-6-5-0-7-6-0-6-5-0-4---4-4-----| x8
|0-6-5-0-7-6-0-6-5-0-4-----------|
|0-6-5-0-7-6-0-6-5-0-4-----------|

	(guitar 1)
|--------------------------------|
|--------------------------------|
|--------------------------------|
|0-0-0-0-1---0-0-0-0-1---0-0-2---| 
|0-0-0-0-1---0-0-0-0-1---0-0-2---|
|0-0-0-0-1---0-0-0-0-1---0-0-2---|\
 . . . . .   . . . . .   . . .     \
				    |3
	(guitar 2)		   /
|--------------------------------|/
|--------------------------------|
|7-7-7-7-8---7-7-7-7-8---7-7-9---|
|X-X-X-X-X---X-X-X-X-X---X-X-X---|
|5-5-5-5-6---5-5-5-5-6---5-5-7---|
|--------------------------------|

|--------------------------------|
|--------------------------------|
|--------------------------------|
|--------------------------------|
|3-------2-------1-------0-------|
|3-------2-------1-------0-------|
 .       .       .       .

	(guitar 1)
|--------------------------------|
|--------------------------------|
|--------------------------------|
|0-0-0-0-1---0-0-0-0-1---0-0-2---| 
|0-0-0-0-1---0-0-0-0-1---0-0-2---|
|0-0-0-0-1---0-0-0-0-1---0-0-2---|\
 . . . . .   . . . . .   . . .     \
				    |3
	(guitar 2)		   /
|--------------------------------|/
|--------------------------------|
|7-7-7-7-8---7-7-7-7-8---7-7-9---|
|X-X-X-X-X---X-X-X-X-X---X-X-X---|
|5-5-5-5-6---5-5-5-5-6---5-5-7---|
|--------------------------------|

|--------------------------------|
|--------------------------------|
|--------------------------------|
|--------------------------------|
|3-------2-------1-------0-------|
|3-------2-------1-------0-------|
 .       .       .       .

|--------------------------------|
|--------------------------------|
|-------8/7~~~~~~~~~~~~~~~~~~~~~~|
|-------X/X----------------------|
|(0)----6/5~~~~~~~~~~~~~~~~~~~~~~|
|(0)-----------------------------|

|--------------------------------|
|--------------------------------|
|----3-------3-------4-------4---|
|--------------------------------| x4
|1-1---1-1-1---1-2-2---2-2-2---2-|
|1-1---1-1-1---1-2-2---2-2-2---2-|
 . .   . . .   . . .   . . .   .

|--------------------------------|
|--------------------------------|
|--------------------------------|
|0-6-5-0-7-6-0-6-5-0-4---4-4-----| x8
|0-6-5-0-7-6-0-6-5-0-4-----------|
|0-6-5-0-7-6-0-6-5-0-4-----------|

	(guitar 1)
|--------------------------------|
|--------------------------------|
|--------------------------------|
|0-0-0-0-1---0-0-0-0-1---0-0-2---| 
|0-0-0-0-1---0-0-0-0-1---0-0-2---|
|0-0-0-0-1---0-0-0-0-1---0-0-2---|\
 . . . . .   . . . . .   . . .     \
				    |3
	(guitar 2)		   /
|--------------------------------|/
|--------------------------------|
|7-7-7-7-8---7-7-7-7-8---7-7-9---|
|X-X-X-X-X---X-X-X-X-X---X-X-X---|
|5-5-5-5-6---5-5-5-5-6---5-5-7---|
|--------------------------------|

|--------------------------------|
|--------------------------------|
|--------------------------------|
|--------------------------------|
|3-------2-------1-------0-------|
|3-------2-------1-------0-------|
 .       .       .       .

	(guitar 1)
|--------------------------------|
|--------------------------------|
|--------------------------------|
|0-0-0-0-1---0-0-0-0-1---0-0-2---| 
|0-0-0-0-1---0-0-0-0-1---0-0-2---|
|0-0-0-0-1---0-0-0-0-1---0-0-2---|\
 . . . . .   . . . . .   . . .     \
				    |3
	(guitar 2)		   /
|--------------------------------|/
|--------------------------------|
|7-7-7-7-8---7-7-7-7-8---7-7-9---|
|X-X-X-X-X---X-X-X-X-X---X-X-X---|
|5-5-5-5-6---5-5-5-5-6---5-5-7---|
|--------------------------------|

|--------------------------------|
|--------------------------------|
|--------------------------------|
|--------------------------------|
|3-------2-------1-------0-------|
|3-------2-------1-------0-------|
 .       .       .       .
|--------------------------------|------|-------------------------------|
|--------------------------------|------|-------------------------------|
|--------------------------------|-play-|-------------------------------|
|6-6-6-5-5-5-4-4-4-3-3-3-2-2-1-1-|--x3--|6-6-6-5-5-5-4-4--0-0----0-0----|
|--------------------------------|------|-----------------0-0----0-0----|
|--------------------------------|------|-----------------0-0----0-0----|

|----------------------------------------------------------------|
|----------------------------------------------------------------|
|----------------------------------------------------------------|
|6-6-6-5-5-5-4-4-4-0-0-0-0-0-0-0-6-6-6-5-5-5-4-4-4---0-0---0-0---| x4
|6-6-6-5-5-5-4-4-4-0-0-0-0-0-0-0-6-6-6-5-5-5-4-4-4---0-0---0-0---| 
|6-6-6-5-5-5-4-4-4-0-0-0-0-0-0-0-6-6-6-5-5-5-4-4-4---0-0---0-0---|

|--|
|--|
|--|
|0-|
|0-|
|0-|


End.

--------------
11 - Paperdoll
--------------

|---------------------------------------|
|5-XXXX-5-XXXX-5-XX-6-XXXX-6-XXXX-8-6-5-|
|4-XXXX-4-XXXX-4-XX-5-XXXX-5-XXXX-7-5-4-| 
|---------------------------------------| x4
|---------------------------------------|
|---------------------------------------|

|---------------------------------------|
|5-XXXX-5-XXXX-5-XX-6-XXXX-6-XXXX-8-6-5-|
|4-XXXX-4-XXXX-4-XX-5-XXXX-5-XXXX-7-5-4-|
|2-XXXX-2-XXXX-2-XX-3-XXXX-3-XXXX-5-3-2-| x12
|2-XXXX-2-XXXX-2-XX-3-XXXX-3-XXXX-5-3-2-|
|2-XXXX-2-XXXX-2-XX-3-XXXX-3-XXXX-5-3-2-|

|----------|------|------|
|----------|------|------|
|----------|-play-|------|
|0-0/6-6-0-|--x2--|--7-7-| x4
|0-0/6-6-0-|------|--7-7-|
|0-0/6-6-0-|------|--7-7-|

|---------------------------------------|
|5-XXXX-5-XXXX-5-XX-6-XXXX-6-XXXX-8-6-5-|
|4-XXXX-4-XXXX-4-XX-5-XXXX-5-XXXX-7-5-4-|
|2-XXXX-2-XXXX-2-XX-3-XXXX-3-XXXX-5-3-2-| x8
|2-XXXX-2-XXXX-2-XX-3-XXXX-3-XXXX-5-3-2-|
|2-XXXX-2-XXXX-2-XX-3-XXXX-3-XXXX-5-3-2-|

|----------|------|------|
|----------|------|------|
|----------|-play-|------|
|0-0/6-6-0-|--x2--|--7-7-| x4
|0-0/6-6-0-|------|--7-7-|
|0-0/6-6-0-|------|--7-7-|

|-------------------------------------------|
|-------------------------------------------|
|-------------------------------------------|
|-------------------------------------------| x4
|-------------------------------------------|
|12--12-12-12---12--12-12\8--8-10--10-10-10/|

|-------------------------------------------|
|-------------------------------------------|
|-------------------------------------------|
|12--12-12-12---12--12-12\8--8-10--10-10-10/| x4
|12--12-12-12---12--12-12\8--8-10--10-10-10/|
|12--12-12-12---12--12-12\8--8-10--10-10-10/|

|------------------------------------------------|
|------------------------------------------------|
|------------------------------------------------|
|12-----------------------8----10-----------12~~~|
|12-----------------------8----10-----------12~~~|
|12-----------------------8----10-----------12~~~|


End.

-------------
12 - Immortal
-------------

|----------------------------------|
|----------------------------------|
|--------------------5---4---4---4-|
|----4---5-----5-4-----------------| x4
|0-2---2-----2-----2---2-------2---|
|----------------------------------|

|----------------------------|
|----------------------------|
|----------------------------|
|0---0-4-4---3--0-2----2---2-| x4
|0---0-4-4---3--0-2----------|
|0---0-4-4---3--0-2--2---2---|

|----------------------------------|
|----------------------------------|
|--------------------5---4---4---4-|
|----4---5-----5-4-----------------| x4
|0-2---2-----2-----2---2-------2---|
|----------------------------------|

|----------------------------|
|----------------------------|
|----------------------------|
|0---0-4-4---3--0-2----2---2-| x4
|0---0-4-4---3--0-2----------|
|0---0-4-4---3--0-2--2---2---|

|--------------------------------------------------------------------|
|--------------------------------------------------------------------|
|----7-----7---7-----7-----7---7-----7-----7---7-7/10---10---10---10-|
|--7-----7---------7-----7---------7-----7-------5/-8----------------| x4
|5-----5-----5---5-----5-----5---5-----5-----5---5/-8-8----8----8----|
|--------------------------------------------------------------------|

|-----------------------------|
|-----------------------------|
|-----------------------------|
|0--4-0-4-3-0-3-4-0-4-3-0---0-| x8
|0--4-0-4-3-0-3-4-0-4-3-0---0-|
|0--4-0-4-3-0-3-4-0-4-3-0---0-|
    * . . . . . . . . . .

End.
Comments