Kittie - Spit Chords & Tabs

 

Spit Chords & Tabs

Kittie Chords & Tabs

Version: 2 Type: Tab 0 ratings
1 star 2 stars 3 stars 4 stars 5 stars
comments

Spit Tab

   
Artist : KITTIE 
Album  : SPIT
Added By Mikhailo

Spit
Charlotte
Paperdoll
Suck
Do You Think I'm A Whore
Brackish
Jonny
Trippin'
Raven
Get Off (You Can Eat A Dick)
Choke
Immortal



------------------------------------------------------------------------------- 
			     Spit - Kittie 
------------------------------------------------------------------------------- 
 
By: Slippy Jones 
 
Tuning: 
 
6=C  3=F 
5=G  2=A 
4=C  1=D 
 
 
 
Intro 
Guitar 1                       8 Both Guitars                
d|-----------------------------|-------------|-----------------------------------| 
A|-----------------------------|-------------|-----------------------------------| 
F|-----------------------------|-------------|-----------------------------------| 
C|-----------------------------|--0--0--0----|-----------------------------------| 
G|-----------------------------|--0--0--0----|-----------------------------------| 
C|-0-2-1-0-1-2-0-2-0-2-0-1-0-2-|--0--0--0----|-0-2-1-0-1-2-0-2-0-2-0-1-0-2-------| 
                                  PM..... 
Verse 
Both Guitars                       3 
d|---------------------------------|-------------------------------------------| 
A|---------------------------------|-------------------------------------------| 
F|---------------------------------|-------------------------------------------| 
C|-2-2---2-2---2-2---2-2---2--0--1-|-------------------------------------------| 
G|-2-2---2-2---2-2---2-2---2--0--1-|-------------------------------------------| 
C|-2-2---2-2---2-2---2-2---2--0--1-|-------------------------------------------| 
  pm........................ 
 
Chorus:  
Both Guitars 
d|---------------------------------------------------------------------------| 
A|---------------------------------------------------------------------------| 
F|---------------------------------------------------------------------------| 
C|---------------------------------------------------------------------------| 
G|---------------------------------------------------------------------------| 
C|--0-2-1-0-1-2-0-2-0-2-0-1-0-2----------------------------------------------| 
                  
Bridge:                                           
Guitar One               2 
d|-----------------------|----------------------------------------------------| 
A|-----------------------|----------------------------------------------------| 
F|-----------------------|----------------------------------------------------| 
C|-----------------------|----------------------------------------------------| 
G|-----------------------|----------------------------------------------------| 
C|-0-1-0-1-0-1-0-3-3-3-3-|-0-1-0-1-0-1-0-3------------------------------------| 
   pm................... 
 
Guitar 2 
 
d|-----------------------|----------------------------------------------------| 
A|-----------------------|----------------------------------------------------| 
F|-----------------------|---------------11-11-11-11--------------------------| 
C|-----------------------|----------------------------------------------------| 
G|-----------------------|---------------9--9--9--9---------------------------| 
C|-----------------------|----------------------------------------------------| 
 
Outro:  
Both Guitars 
 
d|----------------------------------------------------------------------------| 
A|----------------------------------------------------------------------------| 
F|----------------------------------------------------------------------------| 
C|--0-1-0-1-0-1-0-3-----------------------------------------------------------| 
G|--0-1-0-1-0-1-0-3-----------------------------------------------------------| 
C|--0-1-0-1-0-1-0-3-----------------------------------------------------------| 
 
 


------------------------------------------------------------------------------- 
			     Charlotte - Kittie 
------------------------------------------------------------------------------- 
 
By: Slippy Jones 
 
Tuning: 
 
6=C  3=F 
5=G  2=A 
4=C  1=D 
 
 
Intro-Dist. 
           4 
d|---------|------------------------------------------------------------------| 
A|---------|------------------------------------------------------------------| 
F|---------|------------------------------------------------------------------| 
C|-4-4-4-4-|------------------------------------------------------------------| 
G|-4-4-4-4-|------------------------------------------------------------------| 
C|-4-4-4-4-|------------------------------------------------------------------| 
 
Verse 
Repeat This A Bunch Of Times                   
d|----------------|-----------------------------------------------------------| 
A|----------------|-----------------------------------------------------------| 
F|----------------|-----------------------------------------------------------| 
C|-0-0--1/4-4-4-4-|-----------------------------------------------------------| 
G|-0-0--1/4-4-4-4-|-----------------------------------------------------------| 
C|-0-0--1/4-4-4-4-|-----------------------------------------------------------| 
 
Chorus 
Repeat A Bunch Of Times 
d|-------------------|--------------------------------------------------------| 
A|-------------------|--------------------------------------------------------| 
F|-------------------|--------------------------------------------------------| 
C|-3-2-1-2-1-2-1-2-3-|--------------------------------------------------------| 
G|-3-2-1-2-1-2-1-2-3-|--------------------------------------------------------| 
C|-3-2-1-2-1-2-1-2-3-|--------------------------------------------------------| 
 
Bridge 
Bass Arranged For Guitar 
d|--------------------------------------|-------------------------------------| 
A|--------------------------------------|-------------------------------------| 
F|--------------------------------------|-------------------------------------| 
C|--------------------------------------|-------------------------------------| 
G|-5-5-5-5-5/9-9-9-9h10-----------------|-------------------------------------| 
C|----------------------5-5-5-5-5-5-5-5-|-------------------------------------| 
 
Clean Guitar Comes In On The 4th Time (I Think) 
 
d|---------------------------------------------------------------------------| 
A|---------------------------------------------------------------------------| 
F|-7-7-7-7/11-11-11-12-12----------------------------------------------------| 
C|-7-7-7-7/11-11-11-12-12----------------------------------------------------| 
G|-5-5-5-5/9--9--9--10-10----------------------------------------------------| 
C|---------------------------------------------------------------------------| 
 
Then Guitar 2 Comes In 
 
d|---------------------------------------------------------------------------| 
A|---------------------------------------------------------------------------| 
F|---------------------------------------------------------------------------| 
C|-5~------------------------------------------------------------------------| 
G|-5~------------------------------------------------------------------------| 
C|-5~------------------------------------------------------------------------| 
 
Outro: NO! NO WAY! 
 
d|---------------------------------------------------------------------------| 
A|---------------------------------------------------------------------------| 
F|-7-7-7-8-7-8-7-8-----------------------------------------------------------| 
C|---------------------------------------------------------------------------| 
G|-5-5-5-6-5-6-5-6--------0-0--0-1-0-1-0-1-0-1-------------------------------| 
C|------------------------0-0--0-1-0-1-0-1-0-1-------------------------------| 
                      pm.................. 
 
 
 
------------------------------------------------------------------------------- 
			     Paperdoll - Kittie 
------------------------------------------------------------------------------- 
 
By: Slippy Jones 
 
Tuning: 
 
6=C  3=F 
5=G  2=A 
4=C  1=D 
 
Intro/Verse: Clean Guitar  
 
  Repeat A Lot Of Times, I Lost Count 
d|-----------------------------------------------------|---------------------| 
A|-----------------------------------------------------|---------------------| 
F|-9-x-x-x-x-9-x-x-x-x-9-x-x-10-x-x-x-x-10-10/12-12-10-|---------------------| 
C|-9-x-x-x-x-9-x-x-x-x-9-x-x-10-x-x-x-x-10-10/12-12-10-|---------------------| 
G|-7-x-x-x-x-7-x-x-x-x-7-x-x-8--x-x-x-x--8--8/10-10--8-|---------------------| 
C|-----------------------------------------------------|---------------------| 
 
Chorus: Light Dist. 
                            4 
d|--------------------------|-------------------------------------------------| 
A|--------------------------|-------------------------------------------------| 
F|--------------------------|-------------------------------------------------| 
C|-0/6-6-6-0--0/6-6-6-0-7-7-|-------------------------------------------------| 
G|-0/6-6-6-0--0/6-6-6-0-7-7-|-------------------------------------------------| 
C|-0/6-6-6-0--0/6-6-6-0-7-7-|-------------------------------------------------| 
 
Outro 
                         8 
d|-----------------------|----------------------------------------------------| 
A|-----------------------|----------------------------------------------------| 
F|-7-7-7-8/7-7-7-3-3-5-5-|-(5)-7~-------7---7---3---5-------------------------| 
C|-7-7-7-8/7-7-7-3-3-5-5-|-(5)-7~-------7---7---3---5---0-~-------------------| 
G|-5-5-5-6/5-5-5-1-1-3-3-|-(3)-5~-------5---5---1---3---0-~-------------------| 
C|-----------------------|------------------------------0-~-------------------| 
 
 
 
------------------------------------------------------------------------------- 
			     Suck - Kittie 
------------------------------------------------------------------------------- 
 
By: Slippy Jones 
 
Tuning: 
 
6=C  3=F 
5=G  2=A 
4=C  1=D 
 
 
Intro-Dist. 
                           3                       3 
d|-------------------------|-----------------------|---------------------------| 
A|-------------------------|-----------------------|---------------------------| 
F|-------------------------|-----------------------|---------------------------| 
C|-0-6-0-7-8-0-6-0-6-0-7-8-|-0-6-0-7-8-0-6-0-6-7-8-|---------------------------| 
G|-0-6-0-7-8-0-6-0-6-0-7-8-|-0-6-0-7-8-0-6-0-6-7-8-|---------------------------| 
C|-0-6-0-7-8-0-6-0-6-0-7-8-|-0-6-0-7-8-0-6-0-6-7-8-|---------------------------| 
   pm..................... 
 
Verse            Pre-Chorus 
  with effect  9 
d|-------------|--------------------------------------------------------------| 
A|-------------|--------------------------------------------------------------| 
F|-9--------12-|--------------------------------------------------------------| 
C|-------------|-0-2-0-2-0-2-------------0-2-0-2-0-3--------------------------| 
G|-7--------10-|-0-2-0-2-0-2-------------0-2-0-2-0-3--------------------------| 
C|-------------|-0-2-0-2-0-2--0000-0000--0-2-0-2-0-3--------------------------| 
                              pm.......  
   
  Chorus "...believe me when i say..." 
                               6 
d|-----------------------------|----------------------------------------------| 
A|-----------------------------|----------------------------------------------| 
F|-----------------------------|----------------------------------------------| 
C|-0-6-0-7-8-0-6-0-6-0-7-8-8-8-|----------------------------------------------| 
G|-0-6-0-7-8-0-6-0-6-0-7-8-8-8-|----------------------------------------------| 
C|-0-6-0-7-8-0-6-0-6-0-7-8-8-8-|----------------------------------------------| 
 
 Breakdown  
 
d|--------|-------------------------------------------------------------------| 
A|--------|-------------------------------------------------------------------| 
F|--------|-------------------------------------------------------------------| 
C|-9~-----|-------------------------------------------------------------------| 
G|--------|-------------------------------------------------------------------| 
C|-7~-----|-------------------------------------------------------------------| 
 
Outro "...Fuck You..." 
                       9 
d|---------------------|------------------------------------------------------| 
A|---------------------|------------------------------------------------------| 
F|---------------------|------------------------------------------------------| 
C|-0-0-0-6-0-0-0-0-8-7-|-7~-(7)*----------------------------------------------| 
G|-0-0-0-6-0-0-0-0-6-5-|-5~-(5)-----------------------------------------------| 
C|-0-0-0-6-0-0-0-0-----|------------------------------------------------------| 
                             * Feedback Pitch C 

 
-------------------------------------------------------------------------------
Do You Think I'm A Whore? - Kittie 
------------------------------------------------------------------------------- 
 
By: Slippy Jones 
 
6=C  3=F 
5=G  2=A 
4=C  1=D 
 
Guitars Tacet For 3 bars 
 
  Verse                  
d|-----------------------|----------------------------------------------------| 
A|-----------------------|----------------------------------------------------| 
F|-----------------------|----------------------------------------------------| 
C|-2-2-2-3-0-2-2-2-3-2-0-|----------------------------------------------------| 
G|-2-2-2-3-0-2-2-2-3-2-0-|----------------------------------------------------| 
C|-2-2-2-3-0-2-2-2-3-2-0-|----------------------------------------------------| 
 
 Chorus "Like You...Like Me" 
 
d|---------------------------------------------------------------------------| 
A|---------------------------------------------------------------------------| 
F|---------------------------------------------------------------------------| 
C|---------------------------------------------------------------------------| 
G|---------------------------------------------------------------------------| 
C|-3p0-3p0-2h3-0-3p0-3p0-2h3-------------------------------------------------| 
 
 

-------------------------------------------------------------------------------
Brackish - Kittie 
------------------------------------------------------------------------------- 

Transcribed by: LostText
Email: KnifePassenger@AOL.com

p = Palm Mute  
^ = bend
H = hammer on
* = important junk

tuning:

6=C 3=F
5=G 2=A 
4=C 1=D


Opening Riff

|-----------12------------12----13---
|-11-11--11-----11-11--11----11------
|------------------------------------   X 3  
|------------------------------------ 
|------------------------------------
|------------------------------------

|-----------12-----------------------
|-11-11--11----11--11--11-11-11-11---
|------------------------------------   X 1
|------------------------------------
|------------------------------------
|------------------------------------

Listen to the song for the amount of 
times to play these other parts.


Chorus Riff

|------------------------------------
|------------------------------------
|------------------------------------   X 8
|-0-1-0-1-1--0-1-0-1-6--6------------
|-0-1-0-1-1--0-1-0-1-6--6------------
|-0-1-0-1-1--0-1-0-1-6--6------------
    H   H      H   H

Verse Riff

|------------------------------------
|------------------------------------
|------------------------------------   X 4
|---------0--------------------------
|-0-0-1-0-0----0-0-1-0-0-------------
|-0-0-1-0-0----0-0-1-0-0-------------
  P........    p........

Interlude 1 ("I'd like to take you down...")

|------------------------------------
|------------------------------------
|------------------------------------   X 1
|-6----------------------------------
|-6-----------1-0--------------------
|-6-----------1-0--------------------
  hold out    * *

|------------------------------------
|------------------------------------
|------------------------------------
|------------------------------------
|-1-0--------------------------------
|-1-0--------------------------------
  * *

* -Slight palm muting

Interlude 2

|-----------------------------------
|----3-------3-----3-------5--------
|---*5^-----*5^---*5^-----*7^-------
|-0-----0-0-----0-----0-0-----------
|-0-----0-0-----0-----0-0-----------
|-0-----0-0-----0-----0-0-----------
  p     p..     p     p..

* -Bend up to a semi-tone under the higher note.


Any questions or comments, lemme know.  

[ Tab from: http://www.guitartabs.cc/tabs/k/kittie/spit_tab_ver_2.html ]
------------------------------------------------------------------------------- 
			     Jonny - Kittie 
------------------------------------------------------------------------------- 
 
By: Slippy Jones 
 
Tuning: 
 
6=C  3=F 
5=G  2=A 
4=C  1=D 
 
Intro Part 1 
 
d|---------------------------------|-----------------------------------| 
A|---------------------------------|-----------------------------------| 
F|---------------------------------|-----------------------------------| 
C|---------------------------------|-----------------------------------| 
G|-1-0-0-1-0-0-1-0-1-0-0-1-0-0-1-0-|-----------------------------------| 
C|-1-0-0-1-0-0-1-0-1-0-0-1-0-0-1-0-|---1-0-0-1-0-0-1-0-1-0-0-1-0-0-1-0-| 
   pm.............................    release pm 
 
Intro Part 2 
                                 4 
d|-------------------------------| 
A|-------------------------------| 
F|-------------------------------| 
C|-1-0-0-1-0-0-1-0-1-0-0-1-0-0-4-| 
G|-1-0-0-1-0-0-1-0-1-0-0-1-0-0-4-| 
C|-1-0-0-1-0-0-1-0-1-0-0-1-0-0-4-| 
 
Verse                        Chorus 
                            4                               4                 
d|----------------------------|-------------------------------| 
A|----------------------------|-------------------------------| 
F|----------------------------|-------------------------------| 
C|------------------4-4-4-4-4-|-------------------------------| 
G|-5-4-0-5-4-0-5-4--4-4-4-4-4-|-1-0-0-1-0-0-1-0-1-0-0-1-0-0-4-| 
C|-5-4-0-5-4-0-5-4--4-4-4-4-4-|-1-0-0-1-0-0-1-0-1-0-0-1-0-0-4-| 
                    harm... 
 
"...Jonny's Been A Very Bad Boy..." Part 
                                   3 
d|---------------------------------|-------------------------| 
A|---------------------------------|-------------------------| 
F|---------------------------------|-------------------------| 
C|---------------------------------|-------------------------| 
G|-0-0-0-0-0-0-0-0-7-0-0-7-0-0-7/8-|-0-0-0-0-0-0-0-0-7-0-0-7-| 
C|-0-0-0-0-0-0-0-0-7-0-0-7-0-0-7/8-|-0-0-0-0-0-0-0-0-7-0-0-7-| 
   pm.............   ...   ... 
 
Bridge Part 1              Bridge Part 2 "...You Look At Me..." 
                         4 
d|-----------------------|----------------------------------------------------| 
A|-----------------------|----------------------------------------------------| 
F|-----------------------|----------------------------------------------------| 
C|-----------------------|----------------------------------------------------| 
G|-5-4-0-5-4-0-5-4-5-4-0-|-5-4-0-5-4-0-5-4-5-4-0------------------------------| 
C|-5-4-0-5-4-0-5-4-5-4-0-|-5-4-0-5-4-0-5-4-5-4-0------------------------------| 
   pm................... 
 
Outro 
 
d|---------------------------------------------------------------------------| 
A|---------------------------------------------------------------------------| 
F|---------------------------------------------------------------------------| 
C|---------------------4-4-4-4-4---------------------------------------------| 
G|---------------------4-4-4-4-4---------------------------------------------| 
C|-5-4-0-5-4-0-5-4-5-4-4-4-4-4-4---------------------------------------------| 
 
 
 
------------------------------------------------------------------------------- 
			    Trippin - Kittie 
------------------------------------------------------------------------------- 

Transcribed by: Slippy Jones 
Email: SlippyJones@aol.com 
 
Tuning: 1 Whole Step  
And Then Drop "D" Tuning 
 
6=C 3=F 
5=G 2=A  
4=C 1=D 
 
Tab Notes 
nh=Natural Harmonics 
pm.=Palm Mute 
/=Slide Down 
~=Vibrato 
 
------------------------------------------------------------------------------ 
------------------------------------------------------------------------------ 
-------------7-------8-------7-------8---------------------------------------- 
------------------------------------------------------------------------------ 
-------------5-------6-------5-------6---------------------------------------- 
-------0-0-0---0-0-0---0-0-0---0-0-0------------------------------------------ 
 Intro pm...   .....   .....   .....   Repeat Twice                            
 
------------------------------------------------------------------------------ 
------------------------------------------------------------------------------ 
------------------------------------------------------------------------------ 
------*13/*--0-0--0-0-0--5/7-0--8-9------------------------------------------- 
------*13/*--0-0--0-0-0--5/7-0--8-9------------------------------------------- 
------*13/*--0-0--0-0-0--5/7-0--8-9------------------------------------------- 
 Verse            pm...  .....   *1st Time Only                                
 
------------------------------------------------------------------------------ 
------------------------------------------------------------------------------ 
-------------------------------------------------------nh..........----------- 
-0-7-0-7-0-7-0-7-8-8-8-8-0-7-0-7-0-7-0-7-8-8-8-8--------7----7----7----------- 
-0-7-0-7-0-7-0-7-8-8-8-8-0-7-0-7-0-7-0-7-8-8-8-8--------7----7----7----------- 
-0-7-0-7-0-7-0-7-8-8-8-8-0-7-0-7-0-7-0-7-8-8-8-8--------7----7----7----------- 
 Chorus "...You're Trippin', I Don't Think So!" Repeat Twice                   
 
------------------------------------------------------------------------------ 
------------------------------------------------------------------------------ 
------------------------------------------------------------------------------ 
-0~-------7-7--*0-7-8-0-7-8-0-7-8-0-7-8-0-0-7-0-7-8-0-7-8-0-7-8-0-7-8-0-0-6*-- 
-0~-------7-7--*0-7-8-0-7-8-0-7-8-0-7-8-0-0-7-0-7-8-0-7-8-0-7-8-0-7-8-0-0-6*-- 
-0~-------7-7--*0-7-8-0-7-8-0-7-8-0-7-8-0-0-7-0-7-8-0-7-8-0-7-8-0-7-8-0-0-6*-- 
 Bridge   nh.. *Repeat Between Stars Twice And Then Go Into Fill 1             
 
------------------------------------------------------------------------------ 
------------------------------------------------------------------------------ 
------------------------------------------------------------------------------ 
-4-2-0-3---------------------------------------------------------------------- 
-4-2-0-3---------------------------------------------------------------------- 
-4-2-0-3---------------------------------------------------------------------- 
 Fill 1                                                                        
 
------------------------------------------------------------------------------ 
------------------------------------------------------------------------------ 
------------------------------------------------------------------------------ 
------------------------------------------------------------------------------ 
------------------------------------------------------------------------------ 
------------------------------------------------------------------------------ 
 Repeat Bridge Twice And Then Go Into Chorus                                   
 
------------------------------------------------------------------------------ 
------------------------------------------------------------------------------ 
------------------------------------------------------------------------------ 
-0~--------------------------------------------------------------------------- 
-0~--------------------------------------------------------------------------- 
-0~--------------------------------------------------------------------------- 
 End                    ....Feedback.....                                      
 
 

------------------------------------------------------------------------------- 
			     Raven - Kittie 
------------------------------------------------------------------------------- 
 
By: Slippy Jones 
 
Tuning: 
 
6=C  3=F 
5=G  2=A 
4=C  1=D 
 
Intro: 
                                                  4 
d|------------------------------------------------|--------------------------| 
A|------------------------------------------------|--------------------------| 
F|------------------------------------------------|--------------------------| 
C|-2-2-x-x-x--------------------------------------|--------------------------| 
G|-2-2-x-x-x--------------------------------------|--------------------------| 
C|-2-2-x-x-x--0-2-2--0-2-2--0-2-2--0-2-2--0-2-3-2-|--------------------------| 
             |-----------------------------------| 
                         Bass 
  Verse 
                                                  4 
d|------------------------------------------------|--------------------------| 
A|------------------------------------------------|--------------------------| 
F|------------------------------------------------|--------------------------| 
C|-2-2-5-5-5--2-2-5-5-5--2-2-5-5-5--2-2-2-2-3-2-0-|--------------------------| 
G|-2-2-5-5-5--2-2-5-5-5--2-2-5-5-5--2-2-2-2-3-2-0-|--------------------------| 
C|-2-2-5-5-5--2-2-5-5-5--2-2-5-5-5--2-2-2-2-3-2-0-|--------------------------| 
      |-----|    |-----|    |-----| pm........... 
       harm.      harm.      harm.  
 
Chorus 
                 4             4 
d|---------------|-------------|---------------------------------------------| 
A|---------------|-------------|---------------------------------------------| 
F|---------------|-------------|---------------------------------------------| 
C|---------------|-5-0-0-5-1-1-|---------------------------------------------| 
G|---------------|-5-0-0-5-1-1-|---------------------------------------------| 
C|-5-0-0-5-1-1-1-|-5-0-0-5-1-1-|---------------------------------------------| 
  |--------------| 
       Bass 
 
Bridge               Fill 1 
                   4 
d|-----------------|---------------------------------------------------------| 
A|-----------------|---------------------------------------------------------| 
F|-----------------|---------------------------------------------------------| 
C|-----------------|-5-------------------------------------------------------| 
G|-----------------|-5-------------------------------------------------------| 
C|-0-0-0-0-0-0-0-0-|-5-------------------------------------------------------| 
   pm.............   harm. 
 
 
Outro: 
 
d|---------------------------------------------------------------------------| 
A|---------------------------------------------------------------------------| 
F|---------------------------------------------------------------------------| 
C|-1-0-1-1-0-1-1-0-1-3-1-0---------------------------------------------------| 
G|-1-0-1-1-0-1-1-0-1-3-1-0---------------------------------------------------| 
C|-1-0-1-1-0-1-1-0-1-3-1-0---------------------------------------------------| 
 

------------------------------------------------------------------------------- 
			   Get off (you can eat a dick) - Kittie 
------------------------------------------------------------------------------- 

Transcribed by: Slippy Jones 
Email: SlippyJones@aol.com 
 
Tuning: 1 Whole Step  
And Then Drop "D" Tuning 
 
6=C 3=F 
5=G 2=A  
4=C 1=D 
 
The Recording Sound A Quarter Step Flat 
 
Tab Notes 
nh=Natural Harmonics 
pm.=Palm Mute 
/=Slide Down 
~=Vibrato 
 
------------------------------------------------------------------------------ 
------------------------------------------------------------------------------ 
------------------------------------------------------------------------------ 
------------------------------------------------------------------------------ 
------------------------------------------------------------------------------ 
------------------------------------------------------------------------------ 
 Gtrs Tacet For 4 bars                                                         
 
------------------------------------------------------------------------------ 
------------------------------------------------------------------------------ 
------------------------------------------------------------------------------ 
-3~-------3------1------------------------------------------------------------ 
-3~-------3------1------------------------------------------------------------ 
-3~-------3------1------------------------------------------------------------ 
 Intro Guitar One                                                              
 
-0----------0----0---0----0--------0---0---0---0---0---0---0---0-------------- 
-6----5--4-----4---4----4-----5--6---6---6---6---4---4---4---4---------------- 
------------------------------------------------------------------------------ 
------------------------------------------------------------------------------ 
------------------------------------------------------------------------------ 
------------------------------------------------------------------------------ 
 Intro Guitar Two                                                              
 
------------------------------------------------------------------------------ 
------------------------------------------------------------------------------ 
------------------------------------------------------------------------------ 
-0-----4-4-4-4-4-444-----0-----4-4-4-4-4-5------------------------------------ 
-0-----4-4-4-4-4-444-----0-----4-4-4-4-4-5------------------------------------ 
-0-----4-4-4-4-4-444-----0-----4-4-4-4-4-5------------------------------------ 
 Verse nh...........           nh.........                                     
 
------------------------------------------------------------------------------ 
------------------------------------------------------------------------------ 
-------------------------------*7*----7--------------------------------------- 
------------------------------------------------------------------------------ 
-------------------------------*5*----5--------------------------------------- 
----------------------------0-0---0-0---0-0-0-0------------------------------- 
 Chorus (You Can Eat A Dick)pm.   ...   .......  Repeat 7x's End On *          
 
------------------------------------------------------------------------------ 
------------------------------------------------------------------------------ 
------------------------------------------------------------------------------ 
------------------------------------------------------------------------------ 
------------------------------------------------------------------------------ 
------------------------------------------------------------------------------ 
 Back To Verse                                                                 
 
------------------------------------------------------------------------------ 
------------------------------------------------------------------------------ 
------------------------------------------------------------------------------ 
-2-0-2-0-2-3-2-0-------------------------------------------------------------- 
-2-0-2-0-2-3-2-0-------------------------------------------------------------- 
-2-0-2-0-2-3-2-0-------------------------------------------------------------- 
 Fast Part (I'm Suffocating) Use Pm For First 4x's, Play 12x's                 
 
------------------------------------------------------------------------------ 
------------------------------------------------------------------------------ 
------------------------------------------------------------------------------ 
-2-2-2-2-2---2-3-------------------------------------------------------------- 
-2-2-2-2-2---2-3-------------------------------------------------------------- 
-2-2-2-2-2---2-3-------------------------------------------------------------- 
 Repeat This 4x's                                                              
 
------------------------------------------------------------------------------ 
------------------------------------------------------------------------------ 
------------------------------------------------------------------------------ 
----------------------------------------------4------------------------------- 
----------------------------------------------4------------------------------- 
----------------------------------------------4------------------------------- 
 Go Back To Intro                     End On  nh                               
 
 
------------------------------------------------------------------------------- 
			     Choke - Kittie 
------------------------------------------------------------------------------- 
 
By: Slippy Jones 
 
Note: This Song Took Me A Long Time To Tab Out. It's Got Alot Of Crazy Stuff In It 
 
6=C  3=F 
5=G  2=A 
4=C  1=D 
 
Intro 
 
                  
Guitar One                  8  
d|---------------------------|---------------------------|-------------------| 
A|---------------------------|---------------------------|-------------------| 
F|---------------------------|-7-7-7-7-8-7-7-7-7-8-7-7-9-|-------------------| 
C|-0-0-0-0-1-0-0-0-0-1-0-0-2-|---------------------------|-------------------| 
G|-0-0-0-0-1-0-0-0-0-1-0-0-2-|-5-5-5-5-6-5-5-5-5-6-5-5-7-|-3-2-1-0-----------| 
C|-0-0-0-0-1-0-0-0-0-1-0-0-2-|---------------------------|-3-2-1-0-----------| 
   pm.......................   3rd Time This Comes In      pm... 
 
 Verse 
                                   4  
d|---------|-----------------------|-------------------------------------------| 
A|---------|-----------------------|-------------------------------------------| 
F|-----7/8-|-----------------------|-------------------------------------------| 
C|-(0)-----|-----------------------|-------------------------------------------| 
G|-(0)-5/6-|-----------------------|-------------------------------------------| 
C|-(0)-----|-0-0-0-1-0-0-0-1-0-0-2-|-0-0-0-1-0-0-------------------------------| 
            | * Bass Guitar       | 
 
"I Looked Over You..." Part 
  
d|---------------------------------------------------------------------------| 
A|---------------------------------------------------------------------------| 
F|-----3-----3---------4-----4-----------------------------------------------| 
C|---------------------------------------------------------------------------| 
G|-1-1---1-1---1-1-2-2---2-2---2-2-------------------------------------------| 
C|-1-1---1-1---1-1-2-2---2-2---2-2-------------------------------------------| 
   pm.   ...   .......   ...   ... 
     
 
Chorus: "Shut Up! Shut Up!" 
                         6                           3 
d|-----------------------|---------------------------|-----------------------| 
A|-----------------------|---------------------------|-----------------------| 
F|-----------------------|---------------------------|-----------------------| 
C|-0-6-5-0-7-6-0-6-5-0-4-|---------------------------|-----------------------| 
G|-0-6-5-0-7-6-0-6-5-0-4-|-0-0-0-0-1-0-0-0-0-1-0-0-2-|-3-2-1-----------------| 
C|-0-6-5-0-7-6-0-6-5-0-4-|-0-0-0-0-1-0-0-0-0-1-0-0-2-|-3-2-1-----------------| 
                                                       pm... 
                           |Repeat This Part Twice          | 
 
 Outro Part One 
                                   3 
d|---------------------------------|------------------------|----------------| 
A|---------------------------------|------------------------|----------------| 
F|---------------------------------|------------------------|----------------| 
C|-6-6-6-5-5-5-4-4-4-3-3-3-2-2-1-1-|-6-6-6-5-5-5-4-0-0--0-0-|----------------| 
G|---------------------------------|---------------0-0--0-0-|----------------| 
C|---------------------------------|---------------0-0--0-0-|----------------| 
                                                   pm......        
Outro Part Two     
                                                              4 ....Choke 
d|------------------------------------------------------------|--------------| 
A|------------------------------------------------------------|--------------| 
F|------------------------------------------------------------|--------------| 
C|-6-6-6-5-5-5-4-4-4----------------6-6-6-5-5-5-4-4-----------|--------------| 
G|-6-6-6-5-5-5-4-4-4-0-0-0-0-0-0-0--6-6-6-5-5-5-4-4--0-0--0-0-|-------0------| 
C|-6-6-6-5-5-5-4-4-4-0-0-0-0-0-0-0--6-6-6-5-5-5-4-4--0-0--0-0-|-------0------| 
                     pm...........                   pm......         pm 
 
 
------------------------------------------------------------------------------- 
			     Immortal - Kittie 
------------------------------------------------------------------------------- 
Transcribed by: Slippy Jones 
Email: SlippyJones@aol.com 
 
Tuning: 1 Whole Step  
And Then Drop "D" Tuning 
 
6=C 3=F 
5=G 2=A  
4=C 1=D 
 
Tab Notes 
nh=Natural Harmonics 
 
------------------------------------------------------------------------------ 
------------------------------------------------------------------------------ 
---------------------5---4---4---4-------------------------------------------- 
-*---4---5---5---4------------------------------------------------------------ 
-0-2---2---2---2---2---2---2---2---------------------------------------------- 
-*---------------------------------------------------------------------------- 
 Main Riff 4x's Omit *After 1st Time                                           
 
------------------------------------------------------------------------------ 
------------------------------------------------------------------------------ 
------------------------------------------------------------------------------ 
-0-0---4-4---3--0--2-----2---2------------------------------------------------ 
-0-0---4-4---3--0--2---------------------------------------------------------- 
-0-0---4-4---3--0--2---2---2-------------------------------------------------- 
 Main Riff #2 4x's                                                             
 
------------------------------------------------------------------------------ 
------------------------------------------------------------------------------ 
-----7-----7---7-----7-----7---7-----7-----7---7-7/10----10---10---10--------- 
---7-----7---------7-----7---------7-----7-------7/10------------------------- 
-5-----5-----5---5-----5-----5---5-----5-----5---5/8---8----8----8------------ 
------------------------------------------------------------------------------ 
 Bridge 4x's                                                                   
 
------------------------------------------------------------------------------ 
------------------------------------------------------------------------------ 
------------------------------------------------------------------------------ 
-----------0--4---0-4-3-0-3-4-0-4-3-0---0--0---------------------------------- 
-----------0--4---0-4-3-0-3-4-0-4-3-0---0--0---------------------------------- 
-----------0--4---0-4-3-0-3-4-0-4-3-0---0--0---------------------------------- 
 Heavy Part  nh   pm................ Repeat This Alot!
Comments