Kittie - Spit Chords & Tabs

 

Spit Chords & Tabs

Kittie Chords & Tabs

Version: 1 Type: Tab 0 ratings
1 star 2 stars 3 stars 4 stars 5 stars
comments

Spit Tab

   
TUNING: tune down one full step and then drop d (C,G,C,F,A,d)


     INTRO:

    D|-----------------------------|---------|-----------------------------|
    A|-----------------------------|---------|-----------------------------|
    F|-----------------------------|---------|-----------------------------|
    C|-----------------------------|-0--0--0-|-----------------------------|
    G|-----------------------------|-0--0--0-|-----------------------------|
    C|-0-2-1-0-1-2-0-2-0-2-0-1-0-2-|-0--0--0-|-0-2-1-0-1-2-0-2-0-2-0-1-0-2-|
                                      pm.....
               
     VERSE:

    D|---------------------------------|
    A|---------------------------------|
    F|---------------------------------|
    C|-2-2---2-2---2-2---2-2---2--0--1-|
    G|-2-2---2-2---2-2---2-2---2--0--1-|
    C|-2-2---2-2---2-2---2-2---2--0--1-|
       pm.......................
[ Tab from: http://www.guitartabs.cc/tabs/k/kittie/spit_tab.html ]
     CHORUS:

    D|------------------------------|
    A|------------------------------|
    F|------------------------------|
    C|------------------------------|
    G|------------------------------|
    C|-0-2-1-0-1-2-0-2-0-2-0-1-0-2--|
                 
     BRIDGE:
             
    D|-----------------------|-------------------------------|
    A|-----------------------|-------------------------------|
    F|-----------------------|-------------------11-11-11-11-|
    C|-----------------------|-------------------------------|
    G|-----------------------|--------------------9--9--9--9-|
    C|-0-1-0-1-0-1-0-3-3-3-3-|-0-1-0-1-0-1-0-3---------------|
       pm...................

     OUTRO:

    D|-----------------|
    A|-----------------|
    F|-----------------|
    C|-0-1-0-1-0-1-0-3-|
    G|-0-1-0-1-0-1-0-3-|
    C|-0-1-0-1-0-1-0-3-|


check out my site:
http://go.to/mph_crash

OR 

join my group:
http://devoted.to/klown
Comments