Kittie - Run Like Hell Chords & Tabs

 

Run Like Hell Chords & Tabs

Kittie Chords & Tabs

Version: 1 Type: Bass Tab 0 ratings
1 star 2 stars 3 stars 4 stars 5 stars
comments

Run Like Hell Bass Tab

   
I'm not 100% sure if this correct, but this is how i play it
it won't harm try it


Intro
G----------------
D----------------
A----------------
D-0-00-0-0-0-0-0- x1

then 

G-----------------
D-----------------
A-----------------
D-000-0-0-0-0-0-0-
[ Tab from: http://www.guitartabs.cc/tabs/k/kittie/run_like_hell_btab.html ]
chorus
G------------------------------------
D------------------------------------
A------------------------------------
D-3~----------333337~----------77777-

verse
G----------------------------------------------------------------------------
D----------------------------------------------------------------------------
A----------------------------------------------------------------------------
D-2~-----4444-3~-----4444-2~-----4444-7~--------4444-5~-----4444-2~-----4444-


hope u enjoy
5STRINGKING
Comments