Kittie - Red Flag Chords & Tabs

 

Red Flag Chords & Tabs

Kittie Chords & Tabs

Version: 1 Type: Tab 0 ratings
1 star 2 stars 3 stars 4 stars 5 stars
comments

Red Flag Tab

 Title: Red Flag
 Artist: Kittie
 Album: Until The End

 Tabbed By: ibanezdemon@yahoo.co.uk

 Tuning: [dropped] (CGCFAD)

 Notes - x = palm mute
         * = let ring
         p = pull-off
         h = hammer on
         / = slide up
         \ = slide down


 'Intro' + 'Verse' (both guitars) 

 D|------------------------------|
 A|------------------------------|
 F|------------------------------|
 C|-------7-------5-------8-5-7--|
 G|-000-0-5-000-0-3-000-0-6-3-5--|
 C|-000-0---000-0---000-0--x-x---|

 D|------------------------------|
 A|------------------------------|
 F|------------------------------|
 C|-------7-------5-------3-3-5--|
 G|-000-0-5-000-0-3-000-0-1-1-3--|
 C|-000-0---000-0---000-0--x-x---|

 D|------------------------------|
 A|------------------------------|
 F|------------------------------|
 C|-------7-------5-------8-5-7--|
 G|-000-0-5-000-0-3-000-0-6-3-5--|
 C|-000-0---000-0---000-0--x-x---|

 D|--------------------------------|
 A|--------------------------------|
 F|--------------------------------|
 C|-------7-------5-------3-3/5-5--|
 G|-000-0-5-000-0-3-000-0-1-1/3-3--|
 C|-000-0---000-0---000-0----------|


  'Bridge' (both guitars)

 D|---------------------------------------|
 A|---------------------------------------|
 F|---------------------------------------|
 C|-55555555-33333333-66666666-55555------|
 G|-55555555-33333333-66666666-55555-xxx--|
 C|-55555555-33333333-66666666-55555-xxx--|

[ Tab from: http://www.guitartabs.cc/tabs/k/kittie/red_flag_tab.html ]
  'Chorus' (both guitars)

  "This is the day.."
 D|---------------------------------------|
 A|---------------------------------------|
 F|---------------------------------------|
 C|-5555555555555555-0h1111111111111111---|
 G|-5555555555555555-0h1111111111111111/--|
 C|-5555555555555555-0h1111111111111111/--|


  'Pre-solo' (single guitar)

   "To be.."
 D|------------|
 A|------------|
 F|------------|
 C|-5*-----1*--|
 G|-5*-----1*--|
 C|-5*-----1*--|
   (palm muted)


  'Behind-solo' (single guitar)

 D|--------------------------------------|
 A|--------------------------------------|
 F|--------------------------------------|
 C|--------------------------------------|
 G|-5-555555-5555555---1-111111-1111111--|
 C|-5-555555-5555555---1-111111-1111111--|
      (----muted----)    (----muted----)


  'Solo' (harmony effect sounds like 2 guitars)

 D|--------------------------------------------------|
 A|--------------------------------------------------|
 F|--------------------------------------------------|
 C|------7-8-7h8p7------7-8-7h8p7------7-8-7h8p7-----|
 G|-10*-----------8p6*-----------8/10*----------8\6--|
 C|--------------------------------------------------|
 

  'Ending' (both guitars)
           (chorus riff but let ring)

 D|------|
 A|------|
 F|------|
 C|--5*--|
 G|-/5*--|
 C|-/5*--|


 [intro][x1]
 [verse][x1]
 [bridge][x2]
 [verse][x2]
 [chorus][x4]
 [bridge][x2]
 [verse][x2]
 [chorus][x4]
 [pre-solo][x2]
 [behind-solo][x2]
 [chorus][x3]
 [end][x1]
Comments