Kittie - Raven Chords & Tabs

 

Raven Chords & Tabs

Kittie Chords & Tabs

Version: 1 Type: Tab 0 ratings
1 star 2 stars 3 stars 4 stars 5 stars
comments

Raven Tab

   
this took me about an hour it is only like 80 percent right and is i
drop c


intro

c---2--2------
g---2--2-----
c---2--2----

verse 12

2-2------------
2-2---------------
2-2----0---------
-------0-------
-------------
---------------

 chorus i dont know if this is correct
[ Tab from: http://www.guitartabs.cc/tabs/k/kittie/raven_tab.html ]
-0--2---3---2--------5--5---5--5----------------------
-0--2---3---2--------5--5---5--5-------------------
-0--2---3---2--------5--5---5--5-------------------
--------------------------------------

verse 3

---0-0-0-0-0-0--0--0-----------------------
---0-0-0-0-0-0--0--0------------------
---0-0-0-0-0-0--0--0


-outro
pm................................................
--2--2--0--2--2--0----2-3-2-3-2--3--0----
--2--2--0--2--2--0----2-3-2-3-2--3--0---
--2--2--0--2--2--0----2-3-2-3-2--3--0-

thats it i am not sur about the chorus but the rest is right.
Comments