Kittie - Paperdoll Chords & Tabs

 

Paperdoll Chords & Tabs

Kittie Chords & Tabs

Version: 5 Type: Tab 0 ratings
1 star 2 stars 3 stars 4 stars 5 stars
comments

Paperdoll Tab

e---------------------------
B---------------------------
G---------------------------
D--9-9-9---10-10-10/12-12-9- <-----this chord becomes the first
A--7-7-7---8--8--8/10--10-7- <-----at the beginning of intro.
D---------------------------
[ Tab from: http://www.guitartabs.cc/tabs/k/kittie/paperdoll_tab_ver_5.html ]
e--------------------------
B--------------------------
G--------------------------
D--0-6-6-6-0--6-6-6-0-7-7--  4x
A--0-6-6-6-0--6-6-6-0-7-7--
D--0-6-6-6-0--6-6-6-0-7-7--  after first time the open chord
                             at the beginning is not used anymore...

then the intro again

back to verse.. 4x

outro:

e-----------------------------
B-----------------------------
G-----------------------------
D--7-7-7--8--7-7-7--3-3--5-5--  8x
A--7-7-7--8--7-7-7--3-3--5-5--
D--7-7-7--8--7-7-7--3-3--5-5--

on 8th time just add  

e-----
B-----
G-----
D--2--...this for the very last chord...
A--2--
D--2--


obviously this tab is in drop d...find the rhythm on your own...
Comments