Kittie - Pain Chords & Tabs

 

Pain Chords & Tabs

Kittie Chords & Tabs

Version: 2 Type: Tab 0 ratings
1 star 2 stars 3 stars 4 stars 5 stars
comments

Pain Tab

   
Band - Kittie
Song - Pain

Tuning: C,G,C,F,A,D

tr - Trem.
~ - Hold the note and let it ring



D|--------------------|
A|--------------------|
F|--------------------|
C|--------------------| x4
G|--------------------|
C|-111111111111-2tr~~~|

D|---------------------------------|
A|---------------------------------|
F|---------------------------------|
C|-1-1-1-1-1-1-1-1-1-1-1-1-2-2-2-2-| x4
G|-1-1-1-1-1-1-1-1-1-1-1-1-2-2-2-2-|
C|-1-1-1-1-1-1-1-1-1-1-1-1-2-2-2-2-|
  pm...............................|

D|------------------------------|
A|------------------------------|
F|------------------------------|
C|-0-0--0-0--0-0--0-0-----------| x3
G|-0-0--0-0--0-0--0-0------3h5--|
C|-0-0--0-0--0-0--0-0--3h5------|
[ Tab from: http://www.guitartabs.cc/tabs/k/kittie/pain_tab_ver_2.html ]
D|--------------------------------------|
A|--------------------------------------|
F|--------------------------------------|
C|-0-0--0-0--0-0------------------------|
G|-0-0--0-0--0-0/5^-3-5-3---------------|
C|-0-0--0-0--0-0-----------5-3b(5)-0~~~-|

D|------------------|
A|------------------|
F|------------------|
C|-5-5-5-2-2-2-0~~~-| x3
G|-5-5-5-2-2-2-0~~~-|
C|-5-5-5-2-2-2-0~~~-|
  pm................|

D|-------------|
A|-------------|
F|-------------|
C|-5-5-5-2-2-2-|
G|-5-5-5-2-2-2-|
C|-5-5-5-2-2-2-|
  pm...........|

D|-----------|
A|-----------|
F|-----------|
C|--------1--| x4
G|--------1--|
C|-1tr>>>-1--|
  pm..........

D|---------------------------------------|
A|---------------------------------------|
F|---------------------------------------|
C|-1-2/4-0-2h4-1-2/4-0-2h4-1-2/4-0-2h4-0-| x4
G|-1-2/4-0-2h4-1-2/4-0-2h4-1-2/4-0-2h4-0-|
C|-1-2/4-0-2h4-1-2/4-0-2h4-1-2/4-0-2h4-0-|

D|------------------|
A|------------------|
F|------------------|
C|-5-5-5-2-2-2-0~~~-| x4
G|-5-5-5-2-2-2-0~~~-|
C|-5-5-5-2-2-2-0~~~-|
  pm................|
Comments