Kittie - Pain Chords & Tabs

 

Pain Chords & Tabs

Kittie Chords & Tabs

Version: 1 Type: Bass Tab 0 ratings
1 star 2 stars 3 stars 4 stars 5 stars
comments

Pain Bass Tab

   
Band - Kittie
Song - Pain
Album - Oracle

Tuning: Drop C [low to high: C G C F]

Intro
F|---------------------------------------------------------|
C|---------------------------------------------------------|
G|---------------------------------------------------------| 
C|---1--1--1--1--1--1--1--1--1--1--1--1--2-2-2-2-2-2-2-2---|

F|---------------------------------------------------------|
C|---------------------------------------------------------|
G|---------------------------------------------------------| x4
C|---1--1--1--1--1--1--1--1--1--1--1--1--2-2-2-2-2-2-2-2---|


Verse
F|----------------------------------------------|
C|----------------------------------------------|
G|---------------------------------------3 h5---| x3
C|---0--0---0--0---0--0---0--0----3 h5----------|


F|--------------------------------------------|
C|--------------------------------------------|
G|-----------------3 h5---3--5--3-------------|
C|---0--0---0--0----------------------5--3--5-|

Chorus
[ Tab from: http://www.guitartabs.cc/tabs/k/kittie/pain_btab.html ]
F|--------------------------------------------------------|
C|--------------------------------------------------------|
G|--------------------------------------------------------| x4
C|---0----------------------------5---5---5---2---2---2---|

Repeat Intro
Repeat Verse
Repeat Chorus

Bridge

F|----------------------------|
C|----------------------------|
G|----------------------------| x4
C|---1-1-1-1-1-1-1-1-1--------|

F|-------------------------------------------------|
C|-------------------------------------------------|
G|-------------------------------------------------| x4
C|---0--2--4--0--1--2--4--0--1--2--4--0--2--4--0---|

Repeat Bridge

Outro

F|-----------------------------------------------------|
C|-----------------------------------------------------|
G|-----------------------------------------------------| x3
C|---0-------------------------5---5---5---2---2---2---|

F|---------------------------------------------------|
C|---------------------------------------------------|
G|------------------------3--5-5-3-3-3-5-------------|
C|---0-------------3--5---------------------3-3------|


F|-----------------------------------|
C|-----------------------------------|
G|-----------------------------------|
C|---5---5---5---2---2---2---2---0---|

End.
Comments