Kittie - Mouthful Of Poison Chords & Tabs

 

Mouthful Of Poison Chords & Tabs

Kittie Chords & Tabs

Version: 1 Type: Tab 0 ratings
1 star 2 stars 3 stars 4 stars 5 stars
comments

Mouthful Of Poison Tab

   
Artist:Kittie
Song:Mouthful of Poison
Album:Oracle

TUNING: Drop D and down 1 step (C G C F A D)

     Riff 1:
    D|-----------------|
    A|-----------------|
    F|-----------------| /=slide
    C|-0000-1----------| PM=palm mute
    G|-0000-1----------|
    C|-0000-1--2/3-1/3-|
     PM----

     Riff 2:
    D|---------------|
    A|---------------|
    F|---------------| played later W/O PM's
    C|-0000-1--3-1-2-|
    G|-0000-1--3-1-2-|
    C|-0000-1--3-1-2-|
     PM----    - - -

Riff 3:
    D|--------------|
    A|--------------|
    F|--------------|
    C|-00000000-1-0-|
    G|-00000000-1-0-|
    C|-00000000-1-0-|
     PM           -

     Riff 4:
    D|-----------|
    A|-----------|
    F|-----------| tremlo pick
    C|-2--3-1--3-| each chord
    G|-2--3-1--3-|
    C|-2--3-1--3-|
[ Tab from: http://www.guitartabs.cc/tabs/k/kittie/mouthful_of_poison_tab.html ]
Riff 5:
    D|----------------------------------------------------|
    A|----------------------------------------------------|
    F|----------------------------------------------------|
    C|-0-0-0-0-1-0--0-0-0-0-1-0--0-0-0-0-1-0---2--3--1--3-|
    G|-0-0-0-0-1-0--0-0-0-0-1-0--0-0-0-0-1-0---2--3--1--3-|
    C|-0-0-0-0-1-0--0-0-0-0-1-0--0-0-0-0-1-0---2--3--1--3-|

     Riff 6:
    D|-------------------------------------------|
    A|-------------------------------------------|
    F|-------------------------------------------|
    C|-x-0--1-0--x-0--1-0--x-0--1-0---2--3--1--3-|
    G|-x-0--1-0--x-0--1-0--x-0--1-0---2--3--1--3-|
    C|-x-0--1-0--x-0--1-0--x-0--1-0---2--3--1--3-|
     PM     -         -         -

     Riff 7: (play w/ flanger @ end)
    D|-----------------|
    A|-------------4-3-|
    F|-------------3-2-|
    C|-------------1-0-|
    G|-------------1-0-|
    C|-0-0-0-0-0-0-1-0-|  

Comments