Kittie - Look So Pretty Chords & Tabs

 

Look So Pretty Chords & Tabs

Kittie Chords & Tabs

Version: 1 Type: Tab 0 ratings
1 star 2 stars 3 stars 4 stars 5 stars
comments

Look So Pretty Tab

   
##################################################################################
# This file is the author's own work and represents their interpretation of the  #
# song. You may only use this file for private study, scholarship, or research.  #
##################################################################################

KITTIE *Look so pretty*

Low "c" Tunning
DAFCGC

Tabbed by Mephisto
mephisto1404@wanadoo.fr


Intro

D|------------------|    |-----------------|    |-----------------|    |-----------------|
A|------------------|    |-----------------|    |-----------------|    |-----------------|
F|----------6----5--|    |-----------------|    |----------6----5-|    |-----------------|
C|-0-1-6-5--6-3--5--|X3  |-0-1-6-5--4-4-3--|X1  |-0-1-6-5--6-3--5-|X3  |-0-1-6-5--4-4-3--|X1
G|-0-1-6-5--4-3--3--|    |-0-1-6-5--4-4-3--|    |-0-1-6-5--4-3--3-|    |-0-1-6-5--4-4-3--|
C|-0-1-6-5----3-----|    |-0-1-6-5--4-4-3--|    |-0-1-6-5----3----|    |-0-1-6-5--4-4-3--|
                                   |PM|                                          |PM|


Intro 2

D|-------------|
A|-------------|
F|-------------|
C|-------------|X4
G|-------------|
C|-22-32-222-6-|


Riff 1                                         Riff 2 
[ Tab from: http://www.guitartabs.cc/tabs/k/kittie/look_so_pretty_tab.html ]
D|----------------|                            |---------------------------------------------------|
A|----------------|                            |---------------------------------------------------|
F|----------------|                            |---------------------------------------------------|
C|-22-32-2-22-2-6-|X8                          |-2-22-2-22-2---------2-22-2-22-2-------------------|X4
G|-22-32-2-22-2-6-|                            |-2-22-2-22-2-6\5-2/6-2-22-2-22-2---------1-0-------|
C|-22-32-2-22-2-6-|                            |-2-22-2-22-2-6\5-2/6-2-22-2-22-2-2-5-4-2-----5-2-5-|
                                                PM--------->         PM--------------------------->       

                                                
 
Replay Riff 1 X4

|A Choice not an echo|


Riff 3

D|-------------------|
A|-------------------|
F|-------------------|
C|-222-2-22-222-2-22-|X4
G|-222-2-22-222-2-22-|
C|-222-2-22-222-2-22-|
 PM----------------->


Chorus

D|---------|   |---------------|    |--------------|    |---------------|
A|---------|   |---------------|    |--------------|    |---------------|
F|---------|   |---------6---5-|    |--------------|    |---------6---5-|
C|-0-1-6-5-|X1 |-0-1-6-5-6-3-5-|X3  |-0-1-6-5-55-4-|X1  |-0-1-6-5-6-3-5-|X3
G|-0-1-6-5-|   |-0-1-6-5-4-3-3-|    |-0-1-6-5-55-4-|    |-0-1-6-5-4-3-3-|
C|-0-1-6-5-|   |-0-1-6-5---3---|    |-0-1-6-5-55-4-|    |-0-1-6-5---3---|
                                             |PM|
               Riff 4

D|----------------------------|
A|----------------------------|
F|----------------------------|
C|-2-222-2-222-22-22-2--------|X3
G|-2-222-2-222-22-22-2-2-6-5-2|
C|-2-222-2-222-22-22-2-2-6-5-2|
  PM-------------------------->

Comments