Kittie - Johnny Chords & Tabs

 

Johnny Chords & Tabs

Kittie Chords & Tabs

Version: 1 Type: Tab 0 ratings
1 star 2 stars 3 stars 4 stars 5 stars
comments

Johnny Tab

   
kittie
johnny
Intro Part 1 
 
d|---------------------------------|-----------------------------------| 
A|---------------------------------|-----------------------------------| 
F|---------------------------------|-----------------------------------| 
C|---------------------------------|-----------------------------------| 
G|-1-0-0-1-0-0-1-0-1-0-0-1-0-0-1-0-|-----------------------------------| 
C|-1-0-0-1-0-0-1-0-1-0-0-1-0-0-1-0-|---1-0-0-1-0-0-1-0-1-0-0-1-0-0-1-0-| 
   pm.............................    release pm 
 
Intro Part 2 
                                 4 
d|-------------------------------| 
A|-------------------------------| 
F|-------------------------------| 
C|-1-0-0-1-0-0-1-0-1-0-0-1-0-0-4-| 
G|-1-0-0-1-0-0-1-0-1-0-0-1-0-0-4-| 
C|-1-0-0-1-0-0-1-0-1-0-0-1-0-0-4-| 
 
Verse                        Chorus 
                            4                               4                 
d|----------------------------|-------------------------------| 
A|----------------------------|-------------------------------| 
F|----------------------------|-------------------------------| 
C|------------------4-4-4-4-4-|-------------------------------| 
G|-5-4-0-5-4-0-5-4--4-4-4-4-4-|-1-0-0-1-0-0-1-0-1-0-0-1-0-0-4-| 
C|-5-4-0-5-4-0-5-4--4-4-4-4-4-|-1-0-0-1-0-0-1-0-1-0-0-1-0-0-4-| 
                    harm... 
 
"...Jonny's Been A Very Bad Boy..." Part 
                                   3 
d|---------------------------------|-------------------------| 
A|---------------------------------|-------------------------| 
F|---------------------------------|-------------------------| 
C|---------------------------------|-------------------------| 
G|-0-0-0-0-0-0-0-0-7-0-0-7-0-0-7/8-|-0-0-0-0-0-0-0-0-7-0-0-7-| 
C|-0-0-0-0-0-0-0-0-7-0-0-7-0-0-7/8-|-0-0-0-0-0-0-0-0-7-0-0-7-| 
   pm.............   ...   ... 
 
Bridge Part 1              Bridge Part 2 "...You Look At Me..." 
                         4 
d|-----------------------|----------------------------------------------------| 
A|-----------------------|----------------------------------------------------| 
F|-----------------------|----------------------------------------------------| 
C|-----------------------|----------------------------------------------------| 
G|-5-4-0-5-4-0-5-4-5-4-0-|-5-4-0-5-4-0-5-4-5-4-0--------------------------------
C|-5-4-0-5-4-0-5-4-5-4-0-|-5-4-0-5-4-0-5-4-5-4-0--------------------------------
   pm................... 
 
Outro 
 
d|--------------------------------------------------------------------------------| 
A|--------------------------------------------------------------------------------| 
F|--------------------------------------------------------------------------------| 
C|---------------------4-4-4-4-4--------------------------------------------------| 
G|---------------------4-4-4-4-4--------------------------------------------------| 
C|-5-4-0-5-4-0-5-4-5-4-4-4-4-4-4--------------------------------------------------|
[ Tab from: http://www.guitartabs.cc/tabs/k/kittie/johnny_tab.html ]
Comments