Kittie - Johhny Chords & Tabs

 

Johhny Chords & Tabs

Kittie Chords & Tabs

Version: 1 Type: Tab 0 ratings
1 star 2 stars 3 stars 4 stars 5 stars
comments

Johhny Tab

   
Kittie-Johny
Track 6
Dropped D
Tabbed By Dan Dunsmore

* Harmonics
x fretboard muting
PM Palm muting


this is my first song tabbed for this website so don't get mad if it
sucks.  I kinda did this off the top of my head too. some of it might 
be a little different or palm muted but you'll get the hang of it.


D--1-0-0-1-0-0-1-0-1-0-0-1-0-0-1--/   PLAY 2X    
A--1-0-0-1-0-0-1-0-1-0-0-1-0-0-1--/   INTRO
D--1-0-0-1-0-0-1-0-1-0-0-1-0-0-1--/
PM(-----------------------------)
[ Tab from: http://www.guitartabs.cc/tabs/k/kittie/johhny_tab.html ]
D--1-0-0-1-0-0-1-0-1-0-0-1-0-0-4--/   PLAY 4X
A--1-0-0-1-0-0-1-0-1-0-0-1-0-0-4--/   PRECHORUS
D--1-0-0-1-0-0-1-0-1-0-0-1-0-0-4--/

D--2-1-0-2-1-0-1-0----------------/   PLAY 4X
A--2-1-0-2-1-0-1-0----------------/   VERSE
D--2-1-0-2-1-0-1-0---4*-4*4*-4*4*-/

PRECHORUS 4X

D--2-1-0-2-1-0-1-0----------------/   PLAY 4X
A--2-1-0-2-1-0-1-0----------------/   CHORUS
D--2-1-0-2-1-0-1-0---4xx4xx46-----/   
PM(---------------)

VERSE 4X
PRECHORUS 4X
VERSE 1X

D--2-1-0-2-1-0-1-0----------------/   PLAY 4X PALM MUTED
A--2-1-0-2-1-0-1-0----------------/   THEN 8X REGULAR
D--2-1-0-2-1-0-1-0----------------/   
                     
PRECHORUS 4X
VERSE 1X

Comments