Kittie - Into The Darkness Chords & Tabs

 

Into The Darkness Chords & Tabs

Kittie Chords & Tabs

Version: 5 Type: Tab 0 ratings
1 star 2 stars 3 stars 4 stars 5 stars
comments

Into The Darkness Tab

Band:Kittie
Song:Into The Darkness
Tunning:- CGCFAD (Low-High)
Email:skater_rocker2003@hotmail.com

Intro
|-------------------------------------|
|-------------------------------------|
|-------------------------------------|
|--9-x16-5-x16-7-x16------------------|
|--7-----3-----5----------------------|
|-------------------------------------|


|-------------------------------------|
|-------------------------------------|
|-----------------------------5555----|
|--000---5p4p0--000---5p4p0---3333----|
|--000---5p4p0--000---5p4p0-----------|
|--000---5p4p0--000---5p4p0-----------|
pm....          ...

Verse (strumming pattern along those lines)
|-------------------------------------------------|
|-------------------------------------------------|
|-------------------------------------------------|
|--2-22222--4-2--22222--4-2---7-77777--7-7--77777-|
|--2-22222--4-2--22222--4-2---7-77777--7-7--77777-|
|--2-22222--4-2--22222--4-2---7-77777--7-7--77777-|
pm   .....       .....          .....       .....

pre-chorus
|--------------------------------|
|--------------------------------|
|--------------------------------|
|--0--5--4--5--7-----------------|
|--0--5--4--3--5-----------------|
|--0--5--4-----------------------|
[ Tab from: http://www.guitartabs.cc/tabs/k/kittie/into_the_darkness_tab_ver_5.html ]
Chorus (on last time before bridge let last note ring)
|-----------------------||-----------------------------------|
|-----------------------||-----------------------------------|
|-----------------------||-----------------------------------|
|--9-x16-5-x16-7-x16----||-000--5p4p0--000--5p4p0--5555------|
|--7-----3-----5--------||-000--5p4p0--000--5p4p0--3333------|
|-----------------------||-000--5p4p0--000--5p4p0------------|
                        pm ...         ... 

solo     ( (6) played only wen repeated )
|------||---------------------------------------||
|------||---------------------------------------||
|------||.-----------8b9r8---4-------7---------.||
|--1/6-||.(6)--9-8-6-------2---2-2/5-----------.||
|------||---------------------------------------||
|------||---------------------------------------||

Bridge
|---------------------------|
|---------------------------|
|---------------------------|
|-----6----2--5-------------|
|-----6----2--5-------------|
|-----6----2--5-------------|
pm    .    .  .  

Pre Chorus 2
|------------------------------|
|------------------------------|
|------------------------------|
|--2-7-6--5--7---2-7-6--7--9---|
|--2-7-6--3--5---2-7-6--5--7---|
|--2-7-6---------2-7-6---------|


chorus 2
|------------------------||------------------------------------|
|------------------------||------------------------------------|
|------------------------||------------------------------------|
|--11-x16--7-x16--9-x16--||--222--7p6p0--222--7p6p0---7777-----|
|--9-------5------7------||--222--7p6p0--222--7p6p0---5555-----|
|------------------------||--222--7p6p0--222--7p6p0------------|
                           pm...         ...          

Finish (Let Ring)
|-------|
|-------|
|-------|
|--11---| 
|--9----|
|-------|

This sounds pretty close...enjoy
Comments