Kittie - Into The Darkness Chords & Tabs

 

Into The Darkness Chords & Tabs

Kittie Chords & Tabs

Version: 2 Type: Tab 0 ratings
1 star 2 stars 3 stars 4 stars 5 stars
comments

Into The Darkness Tab

   
-------------------------------------------------------------------------------
			     INTO THE DARKNESS - KITTIE
-------------------------------------------------------------------------------
Tabbed by:Don Sexton
Email: butched_kittiefan@excite.com (email me if you have any questions, or comments plz :) )

Tuning:CGCFAD
     Intro 
D|--------------------------------------------------------------------|
A|--------------------------------------------------------------------|
F|-9------5------7----------------------------------------------------|
C|-7-X16--3--X16-7--X16-----------------------------------------------|
G|-7------3------5----------------------------------------------------|
C|--------------------------------------------------------------------|
 riff 1
D|--------------------------------------------------------------------|
A|--------------------------------------------------------------------|
F|--------------------555---------------------------------------------|
C|-000-430------------333-(   let ring )------------------------------|
G|-000-430-x2 then----333---------------------------------------------|
C|-000-430------------------------------------------------------------|
   pm.
      verse
D|--------------------------------------------------------------------|
A|--------------------------------------------------------------------|
F|--------------------------------------------------------------------|
C|-400000050400504-----------1111111111111111-------------------------|
G|-400000050400504-x9--then--1111111111111111-------------------------|
C|-400000050400504-----------1111111111111111-------------------------|
pm all 0's
     pre chorus
D|--------------------------------------------------------------------|
A|--------------------------------------------------------------------|
F|------555--777------------------------------------------------------|
C|-054--333--555------------------------------------------------------|
G|-054--333--555------------------------------------------------------|
C|-054----------------------------------------------------------------|
chorus.
D|--------------------------------------------------------------------|
A|--------------------------------------------------------------------|
F|-9-------5--------7-------------------------------------------------|
C|-7-X16---3--X16---7--X16--------------------------------------------|
G|-7-------3--------5-------------------------------------------------|
C|--------------------------------------------------------------------|
then
[ Tab from: http://www.guitartabs.cc/tabs/k/kittie/into_the_darkness_tab_ver_2.html ]
D|--------------------------------------------------------------------|
A|--------------------------------------------------------------------|
F|--------------------555---------------------------------------------|
C|-000-430------------333-(   let ring )-x2---------------------------|
G|-000-430-x2-then----333---------------------------------------------|
C|-000-430------------------------------------------------------------|
   pm.

bridge type thingy.
     " fall   on to   me..."
D|--------------------------------------------------------------------|
A|--------------------------------------------------------------------|
F|--------------------------------------------------------------------|
C|-----6-------2---5----6---------------------------------------------|
G|-----6-------2---5----6---------------------------------------------|
C|-----6-------2---5----6---------------------------------------------|
pm all.

morgan, or lisa's pretty solo
D|--------------------------------------------------------------------|
A|--------------------------------------------------------------------|
F|-------------7/8\7-------3--------6/7-------------------------------|
C|-1/5/8\5/7\5---------1------1/4-------------------------------------|
G|--------------------------------------------------------------------|
C|--------------------------------------------------------------------|

D|--------------------------------------------------------------------|
A|--------------------------------------------------------------------|
F|------555--777------------------------------------------------------|
C|-054--333--555---X2-------------------------------------------------|
G|-054--333--555------------------------------------------------------|
C|-054----------------------------------------------------------------|

D|--------------------------------------------------------------------|
A|--------------------------------------------------------------------|
F|-9-------5--------7-------------------------------------------------|
C|-7-X16---3--X16---7--X16--------------------------------------------|
G|-7-------3--------5-------------------------------------------------|
C|--------------------------------------------------------------------|



Song order :intro
		riff 1
		riff 1
		verse
		pre chorus
		chorus
		verse
		riff 1
		riff 1
		pre chorus
		chorus
		bridge
		solo
		pre chorus
		chorus till end of song. :)
		



| PM palm mute
| /  slide up
| \  slide down
| h  hammer-on
| p  pull-off
| ~  vibrato
| +  harmonic
| x  Mute note
===============================================================================
Comments