Kittie - Into The Darkness Chords & Tabs

 

Into The Darkness Chords & Tabs

Kittie Chords & Tabs

Version: 1 Type: Tab 3 ratings
1 star 2 stars 3 stars 4 stars 5 stars
comments

Into The Darkness Tab

   
 
Kittie *Into the Darkness*

From the album *Until the End*

Tabbed by Mephisto
mephisto1404@wanadoo.fr

Low "C" Tunning CGCFAD

*Intro

D|----------------------------------------|------------------------------|------------------------------|
A|----------------------------------------|------------------------------|------------------------------|
F|----------------------------------------|-------------------------5-55-|-------------------------5-55-|
C|----------------------------------------|-------------------------5-55-|-------------------------5-55-|
G|----------------------------------------|-------2-1-0-------2-1-0-3-33-|-------2-1-0-------2-1-0-3-33-|
C|-7777777777-0-33333333333-0-55555555555-|-0-2-3-------0-2-3------------|-0-2-3-------0-2-3------------|
                                          PM---------------------->|      PM--------------------->| 

*Riff 1

D|-------------------------------|---------------------------|
A|-------------------------------|---------------------------|
F|-------------------------------|---------------------------|
C|-222-4-2-2-222-4-2-444-2-4-2-4-|-7-6-2-777-9-7-777-9-7-9-7-|
G|-222-4-2-2-222-4-2-444-2-4-2-4-|-7-6-2-777-9-7-777-9-7-9-7-|
C|-222-4-2-2-222-4-2-444-2-4-2-4-|-7-6-2-777-9-7-777-9-7-9-7-|
 PM--------------------------------------------------------->

  |I feel helpless, waiting|      |Could this all be the end ?|

D|-------------------------------|---------------------------|
A|-------------------------------|---------------------------|
F|-------------------------------|---------------------------|
C|-222-4-2-2-222-4-2-444-2-4-2-4-|-7-6-2-777-9-7-777-9-7-9-7-|
G|-222-4-2-2-222-4-2-444-2-4-2-4-|-7-6-2-777-9-7-777-9-7-9-7-|
C|-222-4-2-2-222-4-2-444-2-4-2-4-|-7-6-2-777-9-7-777-9-7-9-7-|
 PM--------------------------------------------------------->

  |Coming down all at once|        |Am i losing you ?|

*Riff 2

D|---------------------|
A|---------------------|
F|-----------------555-|
C|-000-555-222-777-555-|
G|-000-555-222-777-333-|
C|-000-555-222-777-----|

  |No way out|


*Chorus

D|--------------------------------------|------------------------------|------------------------------|
A|--------------------------------------|------------------------------|------------------------------|
F|-4--4-4--4--5-5--4-4-2--4--2--4-------|-------------------------5-55-|-------------------------5-55-|
C|-4--4-4--4--5-5--4-4-2--4--2--4-------|-------------------------5-55-|-------------------------5-55-|
G|-2--2-2--2--3-3--2-2-0--2--0--2-------|-------2-1-0-------2-1-0-3-33-|-------2-1-0-------2-1-0-3-33-|
C|--------------------------------------|-0-2-3-------0-2-3------------|-0-2-3-------0-2-3------------|
                                        PM---------------------->|     PM---------------------->| 

 |Until this all crashes down I'll hold on 
[ Tab from: http://www.guitartabs.cc/tabs/k/kittie/into_the_darkness_tab.html ]
D|--------------------------------------|------------------------------|------------------------------|
A|--------------------------------------|------------------------------|------------------------------|
F|-4--4-4--4--5-5--4-4-2--4--2--4-------|-------------------------5-55-|-------------------------5-55-|
C|-4--4-4--4--5-5--4-4-2--4--2--4-------|-------------------------5-55-|-------------------------5-55-|
G|-2--2-2--2--3-3--2-2-0--2--0--2-------|-------2-1-0-------2-1-0-3-33-|-------2-1-0-------2-1-0-3-33-|
C|--------------------------------------|-0-2-3-------0-2-3------------|-0-2-3-------0-2-3------------|
                                        PM---------------------->|     PM---------------------->|
 
 |Into the Darkness Not knowing at all|


*Repeat Riff 1

|Are you out there waiting, wondering about me|
|I've never felt so alone, as i do now|


*Repeat Riff 2

|Hold on to me| 


*Repeat Chorus


*Solo

Guitar 1

D|-----------------------------------------------|---------------------------|
A|-----------------------------------------------|---------------------------|
F|-----------------------------8/9\8-----------7-|---------8/9\8-----------7-|
C|---------------------6/9-8-6-------9---9---5---|-6/9-8-6--------9---9---5--|
G|-------------------------------------7---7-----|------------------7---7----|
C|-----------------------------------------------|---------------------------|

Guitar 2

D|-----------------------------------------------|---------------------------|
A|-----------------------------------------------|---------------------------|
F|-----------------------------------------------|---------------------------|
C|-2---6--2--5-6--2-5--6-6-6-6-2-2-2-5-5-5-5-5-5-|-6-6-6-6-2-2-2-5-5-5-5-5-5-|
G|-2---6--2--5-6--2-5--6-6-6-6-2-2-2-5-5-5-5-5-5-|-6-6-6-6-2-2-2-5-5-5-5-5-5-|
C|-2---6--2--5-6--2-5--6-6-6-6-2-2-2-5-5-5-5-5-5-|-6-6-6-6-2-2-2-5-5-5-5-5-5-|
 PM----------------->|

*Bridge

D|---------------------|-------------------------|
A|---------------------|-------------------------|
F|-----------------555-|-----------------555-777-|
C|-000-555-222-777-555-|-000-555-222-777-555-777-|
G|-000-555-222-777-333-|-000-555-222-777-333-555-|
C|-000-555-222-777-----|-000-555-222-777---------|

*Chorus 2 Play 3X

D|----------------------------------|------------------------------|------------------------------|
A|----------------------------------|------------------------------|------------------------------|
F|-6--6-6--6--7-7--6-6-4--6--4--6---|-------------------------5-55-|-------------------------5-55-|
C|-6--6-6--6--7-7--6-6-4--6--4--6---|-------------------------5-55-|-------------------------5-55-|
G|-4--4-4--4--5-5--4-4-2--4--2--4---|-------2-1-0-------2-1-0-3-33-|-------2-1-0-------2-1-0-3-33-|
C|----------------------------------|-0-2-3-------0-2-3------------|-0-2-3-------0-2-3------------|
                                    PM---------------------->|     PM---------------------->|

|Until this all crashes down i'll on|
|Into the Darkness not knowing at all|

*End

D|----------------------------------------|
A|----------------------------------------|
F|-------------------------5-55-7-9-------|
C|-------------------------5-55-7-9-------|
G|-------2-1-0-------2-1-0-3-33-5-7-------|
C|-0-2-3-------0-2-3----------------------|
 PM---------------------->|


















Comments