Kittie - In Winter Chords & Tabs

 

In Winter Chords & Tabs

Kittie Chords & Tabs

Version: 2 Type: Tab 0 ratings
1 star 2 stars 3 stars 4 stars 5 stars
comments

In Winter Tab

this is the easy way to do this song

e-------------------------------------------------------------------
b-------------------------------------------------------------------
g-------------------------------------------------------------------
d---00000-000-0-000000-000-0-000000-000-0-000000-000-0--------------
a---00000-000-0-000000-000-0-000000-000-0-000000-000-0--------------
d---00000-000-0-000000-000-0-000000-000-0-000000-000-0-------------- x3

e-----333333-333-3-333333-333-3-----333333-333-3-333333-333-3-
b-----222222-222-2-222222-222-2-----333333-333-3-333333-333-3-
g-----333333-333-3-333333-333-3-----000000-000-0-000000-000-0-
d-----------------------------------222222-222-2-222222-222-2-
a-----------------------------------333333-333-3-333333-333-3-
d------------------------------------------------------------- x2
[ Tab from: http://www.guitartabs.cc/tabs/k/kittie/in_winter_tab_ver_2.html ]
e-----33333----------33333----------33333---------33333---------
b-----22222----------22222----------33333---------33333---------
g-----33333----------33333----------00000---------00000---------
d------------4-5-4---------4-5-4----22222-4-5-4---22222---4-5-4-
a------------4-5-4---------4-5-4----33333-4-5-4---33333---4-5-4-
d------------4-5-4---------4-5-4----------4-5-4-----------4-5-4-

e------------------------------------------------------------------------
b------------------------------------------------------------------------
g------------------------------------------------------------------------
d---000000-000-0--000000-000-0--000000-000--0-000000-000-0---------------
a---000000-000-0--000000-000-0--000000-000--0-000000-000-0---------------
d---000000-000-0--000000-000-0--000000-000--0-000000-000-0(let ring out)-

and that is it
keep up the tacoey goodness everyone
agent rad
Comments