Kittie - Immortal Chords & Tabs

 

Immortal Chords & Tabs

Kittie Chords & Tabs

Version: 4 Type: Tab 0 ratings
1 star 2 stars 3 stars 4 stars 5 stars
comments

Immortal Tab

i came up with this at night half a sleep so dont be mad at me if its wrong!
these are the main parts of the song i dont have a bass but i think it sounds good  i
dont remember how many times what is played but just listen to it and find out sorry 

e]-------------------------------]
b]-------------------------------]
g]-------------------------------]
d]------------------------8---7-7]
a]--------7---8---7--------------]
e]------5---5---5-----5-5---5----]

[ Tab from: http://www.guitartabs.cc/tabs/k/kittie/immortal_tab_ver_4.html ]
e]----------------------------------]
b]----------------------------------]
g]----------------------------------]
d]----------------------------------]
a]----------------------------5----5]
e]----0---0-4--4-4-p3--0h3--3----3--]

e]-----------------------------------------------------]
b]-----------------------------------------------------]
g]--------0-----0----------0----0----------------------]
d]-----5------5------5---5----5-----5---8---8---8----8-]
a]---3------3------3---3----3-----3--/6---6---6----6---]
e]-----------------------------------------------------]
Comments