Kittie - Immortal Chords & Tabs

 

Immortal Chords & Tabs

Kittie Chords & Tabs

Version: 3 Type: Tab 0 ratings
1 star 2 stars 3 stars 4 stars 5 stars
comments

Immortal Tab

   
This is my first tab i have ever put on here. Drop D tuning

e|----------------------
g|----------------------
b|-------------5-4-4-4-4  intro 4x
d|----4-5-5-4-----------
a|-0-2---2-2-2----2-2-2-
d|----------------------

e|--------------------------
g|--------------------------
b|--------------------------   play 4x then go back to intro and play 3x
d|-0-0-0-0-0-4-4-3-0-2---2-2   then play this after that 3 more times.
a|-0-0-0-0-0-4-4-3-0-2------
d|-0-0-0-0-0-4-4-3-0-2-2-2-2
[ Tab from: http://www.guitartabs.cc/tabs/k/kittie/immortal_tab_ver_3.html ]
e|--------------------------------
g|--------------------------------
b|---7--7-7-7-7-7-7-10---10-10-10-
d|--7--7-7-7-7-7--7-10-10-10-10---  play 2x
a|-5--5---5-5-----5--8------------
d|--------------------------------

e|--------------------------
g|--------------------------
b|--------------------------
d|-0-3-0-4-3-0-3-4-0-4-3-0-0   play 4x then play intro again.
a|-0-3-0-4-3-0-3-4-0-4-3-0-0
d|-0-3-0-4-3-0-3-4-0-4-3-0-0

i think that is right because it sounds exactly the same. Derrick Crockett
Comments