Kittie - Immortal Chords & Tabs

 

Immortal Chords & Tabs

Kittie Chords & Tabs

Version: 1 Type: Tab 0 ratings
1 star 2 stars 3 stars 4 stars 5 stars
comments

Immortal Tab

   
  IMMORTAL

 Tuning:

6=C 3=F
5=G 2=A 
4=C 1=D

Tuning: 1 Whole Step 
And Then Drop "D" Tuning

------------------------------------------------------------------------------
------------------------------------------------------------------------------
---------------------5---4---4---4--------------------------------------------
-*---4---5---5---4------------------------------------------------------------
-0-2---2---2---2---2---2---2---2----------------------------------------------
-*----------------------------------------------------------------------------
Main Riff 4x's Omit *After 1st Time                                           
[ Tab from: http://www.guitartabs.cc/tabs/k/kittie/immortal_tab.html ]
------------------------------------------------------------------------------
------------------------------------------------------------------------------
------------------------------------------------------------------------------
-0-0---4-4---3--0--2-----2---2------------------------------------------------
-0-0---4-4---3--0--2----------------------------------------------------------
-0-0---4-4---3--0--2---2---2--------------------------------------------------
Main Riff #2 4x's                                                             

------------------------------------------------------------------------------
------------------------------------------------------------------------------
-----7-----7---7-----7-----7---7-----7-----7---7-7/10----10---10---10---------
---7-----7---------7-----7---------7-----7-------7/10-------------------------
-5-----5-----5---5-----5-----5---5-----5-----5---5/8---8----8----8------------
------------------------------------------------------------------------------
Bridge 4x's                                                                   

------------------------------------------------------------------------------
------------------------------------------------------------------------------
------------------------------------------------------------------------------
-----------0--4---0-4-3-0-3-4-0-4-3-0---0--0----------------------------------
-----------0--4---0-4-3-0-3-4-0-4-3-0---0--0----------------------------------
-----------0--4---0-4-3-0-3-4-0-4-3-0---0--0----------------------------------
                    


 
Comments