Kittie - Daughters Down Chords & Tabs

 

Daughters Down Chords & Tabs

Kittie Chords & Tabs

Version: 1 Type: Tab 0 ratings
1 star 2 stars 3 stars 4 stars 5 stars
comments

Daughters Down Tab

   
Tabbed by: Jesse
Email: apocalypseoflife@yahoo.com

Tuning: C
This is most of it but I didn't finsih yet, I plan to just want some feedback on
how it is. I think its really good.

INTRO (x1)
-------------------------------------------------|
-------------------------------------------------|
-------------------------------------------------|
-0-0-0-0--9--0-0-0-0--8--0-0-0-0--7--0-0-0-0--6--|
-0-0-0-0--9--0-0-0-0--8--0-0-0-0--7--0-0-0-0--6--|
-0-0-0-0--9--0-0-0-0--8--0-0-0-0--7--0-0-0-0--6--|

--------------------------------------------------|
--------------------------------------------------|
--------------------------------------------------|
-0-0-0-0--9--0-0-0-0--8--0-0-0-0--11--0-0-0-0--7--|
-0-0-0-0--9--0-0-0-0--8--0-0-0-0--11--0-0-0-0--7--|
-0-0-0-0--9--0-0-0-0--8--0-0-0-0--11--0-0-0-0--7--|
[ Tab from: http://www.guitartabs.cc/tabs/k/kittie/daughters_down_tab.html ]
VERSE (x4)
--------------------------------|
--------------------------------|
--------------------------------|
-0-0-0-0-4--0-0-0-0-4--6-9-7-8--|
-0-0-0-0-4--0-0-0-0-4--6-9-7-8--|
-0-0-0-0-4--0-0-0-0-4--6-9-7-8--|

VERSE 2 (x2)
-----------------------------------|
-----------------------------------|
-----------------------------------|
-0-0-0-0-2--0-0-0-0-2-----5-5-5----|
-0-0-0-0-2--0-0-0-0-2-----3-3-3----|
-0-0-0-0-2--0-0-0-0-2--------------|

VERSE (x3)
--------------------------------|
--------------------------------|
--------------------------------|
-0-0-0-0-4--0-0-0-0-4--6-9-7-8--|
-0-0-0-0-4--0-0-0-0-4--6-9-7-8--|
-0-0-0-0-4--0-0-0-0-4--6-9-7-8--|

then (x1)
-----------------------------|
-----------------------------|
-----------------------------|
-0-0-0-0-4--0-0-0-0-4--5555--|
-0-0-0-0-4--0-0-0-0-4--3333--|
-0-0-0-0-4--0-0-0-0-4--------|

VERSE (x4)
---------------------------------------------|
---------------------------------------------|
---------------------------------------------|
-0-4-4-4-4-4-4-4-6-6-6-9-9-9-7-7-7-8-8-8-----|
-0-4-4-4-4-4-4-4-6-6-6-9-9-9-7-7-7-8-8-8-----|
-0-4-4-4-4-4-4-4-6-6-6-9-9-9-7-7-7-8-8-8-----|
Comments