Kittie - Choke Chords & Tabs

 

Choke Chords & Tabs

Kittie Chords & Tabs

Version: 1 Type: Bass Tab 0 ratings
1 star 2 stars 3 stars 4 stars 5 stars
comments

Choke Bass Tab

   
Kittie - Choke

Okay now that I have tried this on Talenas tuning.  I have figured it out and 
it sounds mucho better.  IT sounds 99% right anyhow - 
Jen//DigitalChic007@aol.com

Tuning CGCFA

Intro 
A -----------------------------
F ------------------------------
C ------------------------------
G ------------------------------
C -0000-1-0000-1-00-2

End of intro - right before 1st verse
C -4-2-2

Verse "You hid it by your good looks your fake smiles..."
A -----------------------------
F ------------------------------
C ------------------------------
G ------------------------------
C -0-0-0-1-0-0-0-1-0-0-3-0-0-0-1-0-0
[ Tab from: http://www.guitartabs.cc/tabs/k/kittie/choke_btab.html ]
"I looked over at you, you looked over at me" part / Chorus
A -------------------------------
F -------------------------------
C -------------------------------
G ------3--------3------------4-
C -1-1----1-1-----1-1-2-2----

"PEDOPHILE, SEDUCTION, TORTURE" the part where she yells all that stuff.
A ---------------------------------
F ---------------------------------
C ---------------------------------
G ---------------------------------
C -0-6-5-0-7-6-0-6-5-0-4

"You're not the king, you never will be!" Fill
A ---------------------------------
F ---------------------------------
C ---------------------------------
G ---------------------------------
C -666-555-444-333-00-00

Outro "I hope you CHOKE!"
A ---------------------------------
F ---------------------------------
C ---------------------------------
G ---------------------------------
C -00-00-00-00-0------ let ring

Song order

Intro
verse
chorus
Part when she yells all that stuff
Intro
Verse
Chorus
Yelling part
Other yelling part. Fill
Outro

Comments