Kittie - Charlotte Chords & Tabs

 

Charlotte Chords & Tabs

Kittie Chords & Tabs

Version: 1 Type: Tab 0 ratings
1 star 2 stars 3 stars 4 stars 5 stars
comments

Charlotte Tab

   
TUNING: tune down one full step and then drop d (C,G,C,F,A,d)


     INTRO:

    D|---------|
    A|---------|
    F|---------|
    C|-4-4-4-4-|
    G|-4-4-4-4-|
    C|-4-4-4-4-|

     VERSE:
               
    D|----------------|
    A|----------------|
    F|----------------|
    C|-0-0--1/4-4-4-4-|
    G|-0-0--1/4-4-4-4-|
    C|-0-0--1/4-4-4-4-|

     CHORUS:

    D|-------------------|
    A|-------------------|
    F|-------------------|
    C|-3-2-1-2-1-2-1-2-3-|
    G|-3-2-1-2-1-2-1-2-3-|
    C|-3-2-1-2-1-2-1-2-3-|

     BRIDGE: (bass arranged for guitar)
[ Tab from: http://www.guitartabs.cc/tabs/k/kittie/charlotte_tab.html ]
    D|--------------------------------------|
    A|--------------------------------------|
    F|--------------------------------------|
    C|--------------------------------------|
    G|-5-5-5-5-5/9-9-9-9h10-----------------|
    C|----------------------5-5-5-5-5-5-5-5-|

     Then the guitar comes in

    D|------------------------|
    A|------------------------|
    F|-7-7-7-7/11-11-11-12-12-|
    C|-7-7-7-7/11-11-11-12-12-|
    G|-5-5-5-5/9--9--9--10-10-|
    C|------------------------|

     OUTRO:

    D|---------------------------------------------|
    A|---------------------------------------------|
    F|-7-7-7-8-7-8-7-8-----------------------------|
    C|---------------------------------------------|
    G|-5-5-5-6-5-6-5-6--------0-0--0-1-0-1-0-1-0-1-|
    C|------------------------0-0--0-1-0-1-0-1-0-1-|
 

can you please check out my web site
http://go.to/mph_crash
OR could you join my group
http://devoted.to/klown
Comments