Kittie - Charlotte Chords & Tabs

 

Charlotte Chords & Tabs

Kittie Chords & Tabs

Version: 1 Type: Bass Tab 0 ratings
1 star 2 stars 3 stars 4 stars 5 stars
comments

Charlotte Bass Tab

Song: CHaRLoTTe
Artist: KiTTie
Album: SPiT
Tabbed by: Tara Martin (kittiekrackwhor@hotmail.com) (icq# 65811225)

Tuning: normal (GDAEB)

I've noticed that some of this was wrong.. so I'm going to fix it
because I'm bored... here we go again..

intro:
B|--5-5-5-5---    (x4)


Verse:
B|--1111--5555--1111--5555--1111--5555--1111--555--   (x4)

im not 100% sure on the 1111 part, cause in the acoustic
version its just the 5555 by its self, but in the heavy
version its sounds great like this!


Pre chorus:
B|-5-5--  (x1)


Chorus:
B|--432-3-2-3-2-3-2-2334--  (x8)


Break: (the great part of the song!)
B|-1--let-ring---

then start playing this..
[ Tab from: http://www.guitartabs.cc/tabs/k/kittie/charlotte_btab.html ]
A|-3-3-3\7-7-7-7h8-8-8----------------------------------                   
E|------------------------------------------------------
B|---------------------------6-6-6-6-6-6-6-6-6-6-6-6-6--

your going to do this for a while, and then the
guitars come in and theres one part that goes..

A|3333333333333333333---------------------------------
E|----------------------------------------------------
B|----------------------------6666666666666666666666--

then you go back to doing the 1st part of the break,
(not the ring part!)
you gotta listen to the song to get the rythm.



Outro:
A|--3-3-4-4-3-3-4-4-------------------------
E|------------------------------------------  (x4)
B|---------------------1-2-1-2-1-1-1-1-2----

do this really fast..and listen to the song..



Another spiffy and fun song! thanks to Audrina
(jimmyurine@bigfoot.com)for the 4 string version!
KiTTie RuLeS!!!!!!!
any questions? comments? e-mail me!

Comments