Kittie - Burning Bridges Chords & Tabs

 

Burning Bridges Chords & Tabs

Kittie Chords & Tabs

Version: 1 Type: Tab 0 ratings
1 star 2 stars 3 stars 4 stars 5 stars
comments

Burning Bridges Tab

   
##################################################################################
# This file is the author's own work and represents their interpretation of the  #
# song. You may only use this file for private study, scholarship, or research.  #
##################################################################################



Kittie *Burning Bridges*

From the album *Until the End*

Tabbed by mephisto
mephisto1404@wanadoo.fr

Low "c" tunning
CGCFAD


*Intro

D|-----------------|
A|-----------------|
F|-----------------|
C|-0-3-0-3-2-0-2-6-|X8
G|-0-3-0-3-2-0-2-6-|
C|-0-3-0-3-2-0-2-6-|
 PM--------------->
 
 |Hell above|
 |Your star is below|
 
[ Tab from: http://www.guitartabs.cc/tabs/k/kittie/burning_bridges_tab.html ]
*Riff 1
 
D|------------------------------|-------------------------------------------------------|
A|------------------------------|-------------------------------------------------------|   
F|------------------------------|-------------------------------------------------------|
C|-3-2-0-6-5-4-0-0-3-2-0-6-5-4--|-0-3-2-3-0--3-2-3-0--0-000-0-3-2-3-0--0-3-2-3-0--0-000-|X2 
G|-3-2-0-6-5-4-0-0-3-2-0-6-5-4--|-0-3-2-3-0--3-2-3-0--0-000-0-3-2-3-0--0-3-2-3-0--0-000-| 
C|-3-2-0-6-5-4-0-0-3-2-0-6-5-4--|-0-3-2-3-0--3-2-3-0--0-000-0-3-2-3-0--0-3-2-3-0--0-000-|   
 PM------------------------------------------------------------------------------------>


Riff 2

D|---------------------------------|
A|---------------------------------|
F|---------------------------------|
C|-0-3-2-3-0-0-000-0-3-2-3-0-0-000-|X4
G|-0-3-2-3-0-0-000-0-3-2-3-0-0-000-|
C|-0-3-2-3-0-0-000-0-3-2-3-0-0-000-|


*Chorus
D|----------------------|
A|----------------------|
F|----------------------|
C|-4-3-3--1-3-33-1-3-3--|X4
G|-4-3-3--1-3-33-1-3-3--|
C|-4-3-3--1-3-33-1-3-3--|




*Repeat riff 1
Repeat riff 2


*Repeat Chorus
 
 
*Riff 4

D|-------------------------------------|   
A|-------------------------------------|   
F|-------------------------------------|   
C|-0-0-00000--00000--00000-7-6-3-6-7-6-|X2
G|-0-0-00000--00000--00000-7-6-3-6-7-6-|  
C|-0-0-00000--00000--00000-7-6-3-6-7-6-|   


*End


D|--------------------------------------|
A|--------------------------------------|
F|--------------------------------------|
C|-0-0-00000--00000--00000--7-6-3-6-7-6-|X4
G|-0-0-00000--00000--00000--7-6-3-6-7-6-|
C|-0-0-00000--00000--00000--7-6-3-6-7-6-|
                          PM----------->
 |One truth for you|
Comments