Kittie - Brackish Chords & Tabs

 

Brackish Chords & Tabs

Kittie Chords & Tabs

Version: 8 Type: Tab 0 ratings
1 star 2 stars 3 stars 4 stars 5 stars
comments

Brackish Tab

   
Tuning: Tune down 1 full step than drop D (C,G,C,F,A,D)
Intro:
D-------------------------------|---------|
A----------17----------17----18-|---------|
F-15-15-15----15-15-15----15----|15-15-15-|
C-------------------------------|---------|
G-------------------------------|---------|
C-------------------------------|---------|


D|-------------------------|
A|-------------------------|
F|-------------------------|
C|-------------------------|
G|-0-1-0-1-0-1-0-1-5-5-5-5-|
C|-0-1-0-1-0-1-0-1-5-5-5-5-|

Verse:
[ Tab from: http://www.guitartabs.cc/tabs/k/kittie/brackish_tab_ver_8.html ]
D|-------------|
A|-------------|
F|-------------|
C|-------------|
G|-------------|
C|-0-0-1-0-0---|

Bridge: ("i'd like to take you down")

D|-----------------------
A|-----------------------
F|----------------------
C|-----------------------
G|-(5)-~-----------------------1-0-|
C|-(5)|~-----------------------1-0-|
                                pm.

Outro:
D|-----------------------------|
A|-----------------------------|
F|----5---------5------------7-|
C|-----------------------------|
G|-0-----0--0-----0--1--0--0---|
C|-0-----0--0-----0--1--0--0---|
  pm.    pm..     pm........
Comments