Kittie - Brackish Chords & Tabs

 

Brackish Chords & Tabs

Kittie Chords & Tabs

Version: 6 Type: Tab 0 ratings
1 star 2 stars 3 stars 4 stars 5 stars
comments

Brackish Tab

   
Name: Gary

Tabs: Author/Artist: Kittie
Title: Brackish
Album: Spit
Transcribed by: LostText
Email: KnifePassenger@AOL.com

p = Palm Mute  
^ = bend
H = hammer on
* = important junk

tuning:

6=C 3=F
5=G 2=A 
4=C 1=D


Opening Riff

|-----------12------------12----13---
|-11-11--11-----11-11--11----11------
|------------------------------------   X 3  
|------------------------------------ 
|------------------------------------
|------------------------------------

|-----------12-----------------------
|-11-11--11----11--11--11-11-11-11---
|------------------------------------   X 1
|------------------------------------
|------------------------------------
|------------------------------------

Listen to the song for the amount of 
times to play these other parts.


Chorus Riff

|------------------------------------
|------------------------------------
|------------------------------------   X 8
|-0-1-0-1-1--0-1-0-1-6--6------------
|-0-1-0-1-1--0-1-0-1-6--6------------
|-0-1-0-1-1--0-1-0-1-6--6------------
    H   H      H   H

Verse Riff
[ Tab from: http://www.guitartabs.cc/tabs/k/kittie/brackish_tab_ver_6.html ]
|------------------------------------
|------------------------------------
|------------------------------------   X 4
|---------0--------------------------
|-0-0-1-0-0----0-0-1-0-0-------------
|-0-0-1-0-0----0-0-1-0-0-------------
  P........    p........

Interlude 1 ("I'd like to take you down...")

|------------------------------------
|------------------------------------
|------------------------------------   X 1
|-6----------------------------------
|-6-----------1-0--------------------
|-6-----------1-0--------------------
  hold out    * *

|------------------------------------
|------------------------------------
|------------------------------------
|------------------------------------
|-1-0--------------------------------
|-1-0--------------------------------
  * *

* -Slight palm muting

Interlude 2

|-----------------------------------
|----3-------3-----3-------5--------
|---*5^-----*5^---*5^-----*7^-------
|-0-----0-0-----0-----0-0-----------
|-0-----0-0-----0-----0-0-----------
|-0-----0-0-----0-----0-0-----------
  p     p..     p     p..

* -Bend up to a semi-tone under the higher note.


Any questions or comments, lemme know.  
Comments