Kittie - Brackish Chords & Tabs

 

Brackish Chords & Tabs

Kittie Chords & Tabs

Version: 3 Type: Tab 0 ratings
1 star 2 stars 3 stars 4 stars 5 stars
comments

Brackish Tab

   
first could you check my site:
http://go.to/mph_crash
and could you join my group:
http://devoted.to/klown

and now heres the TAB!!!


TUNING: tune down one full step and then drop d (C,G,C,F,A,d)


     INTRO:

    D|----------------------------------|-------------------| 
    A|-----------17-----------17-----18-|-------------------| 
    F|-15-15-15------15-15-15-----15----|-15-15-15-15-15-15-| 
    C|----------------------------------|-------------------| 
    G|----------------------------------|-------------------| 
    C|----------------------------------|-------------------| 

    D|---------------------|
    A|---------------------|
    F|---------------------|
    C|-0-1-0-1-0-1-0-1-6-6-|
    G|-0-1-0-1-0-1-0-1-6-6-|
    C|-0-1-0-1-0-1-0-1-6-6-|
[ Tab from: http://www.guitartabs.cc/tabs/k/kittie/brackish_tab_ver_3.html ]
     VERSE:
         
    D|-----------|
    A|-----------|
    F|-----------|
    C|-0-0-1-0-0-|
    G|-0-0-1-0-0-|
    C|-0-0-1-0-0-|

     BRIDGE: (\"I\'d Like To Take You Down\")

    D|---------------------------------|
    A|---------------------------------|
    F|---------------------------------|
    C|---------------------------------|
    G|-(6)-~-----------------------1-0-|
    C|-(6)-~-----------------------1-0-|
                                   pm.

     FILL: (around 1:43)
                             
    D|-------------------|
    A|----3b----------3b-|
    F|----5b----------5b-|
    C|-------------------|
    G|-0-------0--0------|
    C|-0-------0--0------|
       pm      pm..       

    D|----------------0-|
    A|----3b----------5-|
    F|----5b------------|
    C|------------------|
    G|-0-------0--0-----|
    C|-0-------0--0-----|
       pm      pm..      




Comments