Kitchie Nadal - Wag Na Wag Mong Sasabihin Chords & Tabs

 

Wag Na Wag Mong Sasabihin Chords & Tabs

Kitchie Nadal Chords & Tabs

Version: 3 Type: Tab 0 ratings
1 star 2 stars 3 stars 4 stars 5 stars
comments

Wag Na Wag Mong Sasabihin Tab

=============================================================================
Title: Huwag Na Huwag Mong Sasabihin
Artist: Kitchie Nadal (Girlfriend ko yan mga dude!!!)
Album: Kitchie Nadal
Tabbed by: Klod_Hudas  jc_jubas4@yahoo.com
Tuning: EADGBE (Standard lang mga dude)
	I dedicate this song to ms elaine cacdac and other girls too...
=============================================================================
Guitar1: Electric guitar na may distortion
Guitar2: Overdriven guitar
Note: Pero actually ok lang kung parehas na acoustic lang gamit niyo...
h - hammer
p - pull off
* - palm muted

INTRO:
Guitar1 (Distortion off)
E----5-----4-----5-----5-----|
B----5-----5-----7-----6-----|
G----6-----4-----7-----5-----| 2x
D----7-----6-----7-----7-----|
A----7-----4-----5-----5-----|
E----5-----x-----x-----x-----|

Guitar2
E--5-7-4---------------------|
B--------5----0h2-0---0------|
G-------------------2--------| 4x
D----------------------------|
A----------------------------|
E----------------------------|


VERSE1:
Guitar1
E----5-----4-----5-----5-----|
B----5-----5-----7-----6-----|
G----6-----4-----7-----5-----|
D----7-----6-----7-----7-----|2x
A----7-----4-----5-----5-----|
E----5-----x-----x-----x-----|

REFRAIN:
Guitar1
E---4-----5-----|
B---5-----7-----|
G---4-----7-----|2x
D---6-----7-----|
A---4-----5-----|
E---x-----x-----|

Guitar2
E------------------------------------|
B---------5--------------------------|
G-------4----------------------------|
D-----6-----------7-7--7-7-7-7-7-----|
A---4-----------5-----5--------------|
E------------------------------------|
(Im not sure about the 5-7-7 part kasi i'm using keyboards may naghiram ng guitar ko eh...)

[ Tab from: http://www.guitartabs.cc/tabs/k/kitchie_nadal/wag_na_wag_mong_sasabihin_tab_ver_3.html ]
CHORUS: *If youre using an acoustic guitar, gamitin na lang ang chords sa intro
Guitar1 (Distortion on)
E-----------------------------|
B-----------------------------|
G-------6---7---7----10-9-7---|
D---7---6---7---7----10-9-7---|
A---7---4---5---5----8--7-5---|
E---5-------------------------|

E------------------------------|
B------------------------------|
G-------6---7---7---7-10-9-7---|
D---7---6---7---7---7-10-9-7---|
A---7---4---5---5---5-8--7-5---|
E---5--------------------------|

Guitar2:
E-------------------|
B----0h2-0---0------|
G----------2--------| Isang beses lang ito
D-------------------|
A-------------------|
E-------------------|

E--5-7-4---------------------|
B--------5----0h2-0---0------|
G-------------------2--------|3x
D----------------------------|
A----------------------------|
E----------------------------|

E---------------|
B---------------|
G----7-10-9-7---|
D----7-10-9-7---|
A----5-8--7-5---|
E---------------|

VERSE2:
Guitar1 (Distortion off)
E----5-----4-----5-----5-----|
B----5-----5-----7-----6-----|
G----6-----4-----7-----5-----|
D----7-----6-----7-----7-----|2x
A----7-----4-----5-----5-----|
E----5-----x-----x-----x-----|

Guitar2
E-------------------|---------------------------|
B-------------------|---------------------------|
G---2-2-2-2-2-2-2-2-|---2-2h4-4-4-4-4-4-4p2-----|
D-------------------|---------------------------|4x
A-------------------|---------------------------|
E-------------------|---------------------------|
    * * * * * * * *

REPEAT REFRAIN
REPEAT CHORUS


BRIDGE:
Guitars1&2
E-----------|
B-----------|
G---6---7---|
D---6---7---|
A---4---5---|
E-----------|

REPEAT CHORUS hanggang sa magsawa ka...

	Sorry kung di masyadong accurate... iemail nyo na lang ako o iadd sa friendster...
        jc_jubas4@yahoo.com
        Thats it... Support OPM ROCK!!!!!
Comments