Kitchie Nadal - Wag Na Wag Mong Sasabihin Chords & Tabs

 

Wag Na Wag Mong Sasabihin Chords & Tabs

Kitchie Nadal Chords & Tabs

Version: 2 Type: Tab 0 ratings
1 star 2 stars 3 stars 4 stars 5 stars
comments

Wag Na Wag Mong Sasabihin Tab

Kitchie Nadal
Wag NA Wag Mong Sasabihin

[hey people!! i hope you enjoy this!! this is one of my favorite songs in the album...
i got a little help from my kuya with the intro but the rest of it is me... so, have 
it's really easy to get. :)]


intro

this part is only played in the intro...
guitar 1
--------------------------------------------------|
------12------------------------------------------|
--14-------13----------4h6--2h4-------------------|
---------------14---------------------------------|
--------------------------------------------------|
--------------------------------------------------|


guitar 2
---------------------------------------------------|
---------------------------------------------------|
-2-2-2-2-2-2-2-2--6-6-6-6-6-6-6-6--7-7-7-7-7-7-7-7-|
-2-2-2-2-2-2-2-2--6-6-6-6-6-6-6-6--7-7-7-7-7-7-7-7-|
------------------4-4-4-4-4-4-4-4--5-5-5-5-5-5-5-5-|
---------------------------------------------------|


--------------------------------------------------|
--6-6-6-6-6-6-6-6---------------------------------|
--7-7-7-7-7-7-7-7---------------------------------|
--7-7-7-7-7-7-7-7---------------------------------|
--5-5-5-5-5-5-5-5---------------------------------|
--------------------------------------------------|
you play this part all the way to the refrain...

"iba ang nararapat sa akin..."
---------------------------------------------|
---------------------------------------------|
-6-6-6-6-6-6-6-6--7-7-7-7-7-7-7-7------------|
-6-6-6-6-6-6-6-6--7-7-7-7-7-7-7-7------------|
-4-4-4-4-4-4-4-4--5-5-5-5-5-5-5-5------------|
---------------------------------------------|
play this part until the chorus...

[ Tab from: http://www.guitartabs.cc/tabs/k/kitchie_nadal/wag_na_wag_mong_sasabihin_tab_ver_2.html ]
CHROUS
"oohh, wag na wag mong sasabihin"
---------------------------------------------------|
---------------------------------------------------|
-2-2-2-2-2-2-2-2--6-6-6-6-6-6-6-6--7-7-7-7-7-7-7-7-|
-2-2-2-2-2-2-2-2--6-6-6-6-6-6-6-6--7-7-7-7-7-7-7-7-|
------------------4-4-4-4-4-4-4-4--5-5-5-5-5-5-5-5-|
---------------------------------------------------|


--------------------------------------------------|
--------------------------------------------------|
-----9---7----------------------------------------|
-10--9---7----------------------------------------|
-8---7---5----------------------------------------|
--------------------------------------------------|

VERSE

---------------------------------------------------|
---------------------------------------------------|
-2-2-2-2-2-2-2-2--6-6-6-6-6-6-6-6--7-7-7-7-7-7-7-7-|
-2-2-2-2-2-2-2-2--6-6-6-6-6-6-6-6--7-7-7-7-7-7-7-7-|
------------------4-4-4-4-4-4-4-4--5-5-5-5-5-5-5-5-|
---------------------------------------------------|


--------------------------------------------------|
--6-6-6-6-6-6-6-6---------------------------------|
--7-7-7-7-7-7-7-7---------------------------------|
--7-7-7-7-7-7-7-7---------------------------------|
--5-5-5-5-5-5-5-5---------------------------------|
--------------------------------------------------|

CHORUS


"at sa gabi..."

--------------------------------------------------|
--------------------------------------------------|
--------------------------------------------------|
-6-6-6-6-6-6-6-6--7-7-7-7-7-7-7-7-----------------|
-6-6-6-6-6-6-6-6--7-7-7-7-7-7-7-7-----------------|
-4-4-4-4-4-4-4-4--5-5-5-5-5-5-5-5-----------------|
just repeat until you get to the chorus again...

[well, thats all people!! have fun and please, dont forget to rate it!! bye!]
Comments