Kitchie Nadal - Wag Na Wag Mong Sasabihin Chords & Tabs

 

Wag Na Wag Mong Sasabihin Chords & Tabs

Kitchie Nadal Chords & Tabs

Version: 1 Type: Bass Tab 0 ratings
1 star 2 stars 3 stars 4 stars 5 stars
comments

Wag Na Wag Mong Sasabihin Bass Tab

Artist: Kitchie Nadal
Song: Wag na wag mong sasabihin
Tabbed by: Al (clive_102988@yahoo.com) _
{This is my 1st tab}99.9% sure i2 sbyan nyo n lng s song pra makuha un tsempo k...
Txt nyo n lng me pag may mali ok... (09272984671)
Intro

G |----------------------------------7--------|
D |-------------------------------------------|
A |--------------44--44--55--55--5-7----------|
E |0h10\-55--55-------------------------------|


Verse: 1 acoustic p lang


Refrain: 1 (0:00:47)

G |--------------------------------------7----|
D |-------------------------------------------|
A |--4-4-4---5-5-5---4-4-4---5-5-5---5-7------|
E |---------------------------------------/10-|


Chorus: 1 (0:01:02)

G |-------------------------------|
D |-------------------------------|2x
A |00--00--44--44--55--55--8-7-5--|
E |-------------------------------|


Verse: 2 (0:01:25)

G |-----------------\7-7--------------------7-7-----|
D |-------------------------------------------------|
A |-0-0--4-4--5-5---------\12-12--4-4--5-5------\10-|
E |-------------------------------------------------|


Refrain: 2 (0:01:49)
[ Tab from: http://www.guitartabs.cc/tabs/k/kitchie_nadal/wag_na_wag_mong_sasabihin_btab.html ]
G |--------------------------------------7--|
D |-----------------------------------------|
A |--4-4-4---5-5-5---4-4-4---5-5-5---5-7----|
E |-----------------------------------------|

Chorus: 2 (0:02:03)

G |------------------------------------|
D |------------------------------------|2x
A |00--00--44--44--55--55--8-7-5-------|
E |------------------------------------|


Bridge: (0:02:27)

G |-------------------------------------7----|
D |------------------------------------------|
A |-44-444--55-555--44-444--55-555--5-7------|
E |------------------------------------------|


Chorus: 3 (0:02:41)

G |-----------------------------------|
D |-----------------------------------|2x
A |-00-000--444-444--555-555--8-7-5---|
E |-----------------------------------|

	(0:03:05)

G |------------------------------------|
D |------------------------------------|2x
A |00--00--44--44--55--55--8-7-5-------|
E |------------------------------------|

	(0:03:28)
G |---------------------------/77777777---|
D |---------------------------------------|
A |00000000-44444444-55555555-------------|
E |---------------------------------------|

	(0:03:40)
G |----------------------------7---|
D |--------------------------------|2x
A |00--00--44--44--55--55--5-7-----|
E |--------------------------------|

 -End- _


Mabuhay Batch 04-05 ng G.A.S. (IV-REDWOOD, IV-Hemlock and Iv-Lacebark) esp. (JL)
Please Rate it...
Comments