Kitchie Nadal - Same Ground Chords & Tabs

 

Same Ground Chords & Tabs

Kitchie Nadal Chords & Tabs

Version: 6 Type: Tab 0 ratings
1 star 2 stars 3 stars 4 stars 5 stars
comments

Same Ground Tab

   
----------------------------------------------------------------------------
			     SONG NAME - Band Name
----------------------------------------------------------------------------
Tabbed by: PATRICK JOAQUIN
Email: patrickbernardjoaquin@yahoo.com

Tuning:EADGBe



SONG: SAME GROUND
SINGER: KITCHIE NADAL
TABBED BY: PATRICK BERNARD L. JOAQUIN
NOTE: this is my first song to tab so please rate this song for me.
      e-mail me at patrickjoaquin@yahoo.ca. thanks!


INTRO: A-G-A-G (2x)
       A               G 
e---------0-------I---------2---------I
B-----2-------2---I-----2-------2-----I
G---2---2---2---2-I---0---0---0---0---I   
D-----------------I-------------------I
A-0---------------I-------------------I
E-----------------I-3-----------------I


VERSE 1: A-G-A-G (2x)
       A               G 
e---------0-------I---------2---------I
B-----2-------2---I-----2-------2-----I
G---2---2---2---2-I---0---0---0---0---I    
D-----------------I-------------------I
A-0---------------I-------------------I
E-----------------I-3-----------------I

VERSE 2: A-G-A-G
       A               G 
e---------0-------I---------2---------I
B-----2-------2---I-----2-------2-----I
G---2---2---2---2-I---0---0---0---0---I    
D-----------------I-------------------I
A-0---------------I-------------------I
E-----------------I-3-----------------I

PRE-CHORUS 1: A-G-A-G
       A               G 
e---------0-------I---------2---------I
B-----2-------2---I-----2-------2-----I
G---2---2---2---2-I---0---0---0---0---I  
D-----------------I-------------------I
A-0---------------I-------------------I
E-----------------I-3-----------------I

CHORUS: A-E-F#m-D (2x)
       A                  E 
e---------0-------I---------0---------I
B-----2-------2---I-----0-------0-----I
G---2---2---2---2-I---1---1---1---1---I    
D-----------------I-------------------I
A-0---------------I-------------------I
E-----------------I-0-----------------I

      F#m                 D              
e---------2-------I---------2---------I
B-----2-------2---I-----3-------3-----I
G---2---2---2---2-I---2---2---2---2---I    
D-----------------I-0-----------------I 
A-----------------I-------------------I
E-2---------------I-------------------I
[ Tab from: http://www.guitartabs.cc/tabs/k/kitchie_nadal/same_ground_tab_ver_6.html ]
VERSE 1: A-G-A-G (2x)                          
       A               G 
e---------0-------I---------2---------I
B-----2-------2---I-----2-------2-----I
G---2---2---2---2-I---0---0---0---0---I     
D-----------------I-------------------I
A-0---------------I-------------------I
E-----------------I-3-----------------I

PRE-CHORUS 2: A-G-A-G
       A               G 
e---------0-------I---------2---------I
B-----2-------2---I-----2-------2-----I
G---2---2---2---2-I---0---0---0---0---I     
D-----------------I-------------------I
A-0---------------I-------------------I
E-----------------I-3-----------------I

CHORUS: A-E-F#m-D (2x)
       A                  E 
e---------0-------I---------0---------I
B-----2-------2---I-----0-------0-----I
G---2---2---2---2-I---1---1---1---1---I    
D-----------------I-------------------I
A-0---------------I-------------------I
E-----------------I-0-----------------I

      F#m                 D             
e---------2-------I---------2---------I
B-----2-------2---I-----3-------3-----I
G---2---2---2---2-I---2---2---2---2---I    
D-----------------I-0-----------------I 
A-----------------I-------------------I
E-2---------------I-------------------I

ADLIB: A-G                         
       A               G 
e---------0-------I---------2---------I
B-----2-------2---I-----2-------2-----I
G---2---2---2---2-I---0---0---0---0---I    
D-----------------I-------------------I
A-0---------------I-------------------I
E-----------------I-3-----------------I

CHORUS: A-E-F#m-D (2x)
       A                  E 
e---------0-------I---------0---------I
B-----2-------2---I-----0-------0-----I
G---2---2---2---2-I---1---1---1---1---I    
D-----------------I-------------------I
A-0---------------I-------------------I
E-----------------I-0-----------------I

      F#m                 D             
e---------2-------I---------2---------I
B-----2-------2---I-----3-------3-----I
G---2---2---2---2-I---2---2---2---2---I    
D-----------------I-0-----------------I 
A-----------------I-------------------I
E-2---------------I-------------------I

VERSE 3: A-G-A-G (2x)                         
       A               G 
e---------0-------I---------2---------I
B-----2-------2---I-----2-------2-----I
G---2---2---2---2-I---0---0---0---0---I    
D-----------------I-------------------I
A-0---------------I-------------------I
E-----------------I-3-----------------I

| /  slide up
| \  slide down
| h  hammer-on
| p  pull-off
| ~  vibrato
| +  harmonic
| x  Mute note
Comments