Kitchie Nadal - Makulay Na Buhay Chords & Tabs

 

Makulay Na Buhay Chords & Tabs

Kitchie Nadal Chords & Tabs

Version: 1 Type: Tab

Makulay Na Buhay Tab

Makulay na buhay by Kitchie Nadal






After the 1st chorus

e|---------7h9 7----------7—7h9--7—7s6--------|
B|--7h9-7-------------------------------------|kayo na bahala dito…
G|--------------------------------------------|
D|--------------------------------------------|
A|--------------------------------------------|
E|--------------------------------------------|





After the 2nd chorus

[ Tab from: http://www.guitartabs.cc/tabs/k/kitchie_nadal/makulay_na_buhay_tab.html ]
e|--7-7—9b7p---7-9---7-5-7----------------------|
B|--------------------------10-12b--------------|
G|----------------------------------------------|
D|----------------------------------------------|
A|----------------------------------------------|
E|----------------------------------------------|


e|---5-6-7------------7--—--—7-9--7-5-7-6-7-5---|
B|---------7b---7-8-9----7-9--------------------|
G|----------------------------------------------|
D|----------------------------------------------|
A|----------------------------------------------|
E|----------------------------------------------|



Try nyo nalang I think …..its 80% assurance 

Para to sa minamahal ko na si catherinejoy sana magustohan mo to…….luv u alweiz
From   Edgarchito(Richard)………. Of BULACAN

Richard_barcebal@yahoo.com    or   edgarchito@walla.com