Kitchie Nadal - Bulong Chords & Tabs

 

Bulong Chords & Tabs

Kitchie Nadal Chords & Tabs

Version: 1 Type: Bass Tab 0 ratings
1 star 2 stars 3 stars 4 stars 5 stars
comments

Bulong Bass Tab

Title: Bulong
Artist: Kitchie Nadal
Tabbed by: Germaine Santos


Intro:

G|------------|
D|------------|
A|-5/12-12\5--|
E|------------|

G|-----------------------------------|
D|-----------------------------------|
A|-5--5h6-5--7--7h8-7--10--10h11-10--|
E|-----------------------------------|

G|-----------------------------------|
D|-----------------------------------|
A|-5--5h6-5--7--7h8-7--10--10h11-10--|
E|-----------------------------------|


Verse 1:

G|-------------------------|
D|-------------------------|
A|-5--5-5-7--7-7--------5--|
E|---------------3--3-3----|

G|--------------------------|
D|--------------------------|
A|-/5--5-5-7--7-7--------5--|
E|----------------3--3-3----|


Chorus:

G|----------------------------------------------|
D|----------------------------------------------|
A|-5-5--555---333---------333---------5-5--555--|
E|------------------333---------333-------------|

G|-----------------------------------------------|
D|-----------------------------------------------|
A|-/5-5--555---333---------333---------5-5--555--|
E|------------------333---------333--------------|


Intro:

G|-----------------------------------|
D|-----------------------------------|
A|-5--5h6-5--7--7h8-7--10--10h11-10--|
E|-----------------------------------|


Verse 2:

G|-------------------------|
D|-------------------------|
A|-5--5-5-7--7-7--------5--|
E|---------------3--3-3----|

G|--------------------------|
D|--------------------------|
A|-/5--5-5-7--7-7--------5--|
E|----------------3--3-3----|


Chorus 2:

G|----------------------------------------------|
D|----------------------------------------------|
A|-5-5--555---333---------333---------5-5--555--|
E|------------------333---------333-------------|

G|-----------------------------------------------|
D|-----------------------------------------------|
A|-/5-5--555---333---------333---------5-5--555--|
E|------------------333---------333--------------|


Bridge:
[ Tab from: http://www.guitartabs.cc/tabs/k/kitchie_nadal/bulong_btab.html ]
G|--------------------------------------------------|
D|--------------------------------------------------|
A|-/7--3-5-7-5-3----3-3-------3-3-------5--7-5-3-5--|
E|---------------3-------3-3-------3-3--------------|


Intro:

G|-----------------------------------|
D|-----------------------------------|
A|-5--5h6-5--7--7h8-7--10--10h11-10--|
E|-----------------------------------|

G|-----------------------------------|
D|-----------------------------------|
A|-5--5h6-5--7--7h8-7--10--10h11-10--|
E|-----------------------------------|


Adlib 1:

G|-------------------------|
D|-------------------------|
A|-5--5-5-7--7-7--------5--|
E|---------------3--3-3----|

G|--------------------------|
D|--------------------------|
A|-/5--5-5-7--7-7--------5--|
E|----------------3--3-3----|


Chorus 3:

G|----------------------------------------------|
D|----------------------------------------------|
A|-5-5--555---333---------333---------5-5--555--|
E|------------------333---------333-------------|

G|-----------------------------------------------|
D|-----------------------------------------------|
A|-/5-5--555---333---------333---------5-5--555--|
E|------------------333---------333--------------|

G|----------------------------------------------|
D|----------------------------------------------|
A|-5-5--555---333---------333---------5-5--555--|
E|------------------333---------333-------------|

G|-----------------------------------------------|
D|-----------------------------------------------|
A|-/5-5--555---333---------333---------5-5--555--|
E|------------------333---------333--------------|


Adlib 2:

G|-------------------------|
D|-------------------------|
A|-5--5-5-7--7-7--------5--|
E|---------------3--3-3----|

G|--------------------------|
D|--------------------------|
A|-/5--5-5-7--7-7--------5--|
E|----------------3--3-3----|


End:

G|---------|
D|---------|
A|--5b-----|
E|---------|


this is my 2nd tab.. i'm sure na tama 'to.. ilang beses kong pinakinggan yan.. paki rate na lang...
kung my mali, email nyo na lang ako, hotshot_meng@yahoo.com
binabati ko nga pala si liezl santos..
peace out!
Comments