Kisschasy - This Bed Chords & Tabs

 

This Bed Chords & Tabs

Kisschasy Chords & Tabs

Version: 1 Type: Bass Tab

This Bed Bass Tab

   
Band - Kisschasy
Song - This Bed
Album - United Paper People
Tabbed By - Jayson

This is the whole song top to bottom, ive done my best at tabbing this sounds
pretty accurate.

G-----------------|
D-----------------|
A-4-4-3-3-2-2-1-1-|
E-----------------|

G----------------------------------------------------------------------|
D----------------------------------------------------------------------|
A-00-00-22-22-00-00-22-22-00-00-222222444444-00-00-222222444444-000000-|
E----------------------------------------------------------------------|

G------------------------------------------------------------------------------------|
D------------------------------------------------------------------------------------|
A-4~----0~-----2~----0~---2~-4~-0~-----2~-4~-0~--2-22-2-2-4-44-4-4-0-00-0-0-0-00-0-0-|
E----0~-----------0~-----------------------------------------------------------------|

G-----------------|
D-----------------|
A-4-4-3-3-2-2-1-1-|
E-----------------|

G---------------------------------------------------------------------------|
D----------------------------------------------------------4/72-------------|
A-00-00-22-22-00-00-22-22-00-00-2222224444-00-00-2222224444------00000~--00-|
E---------------------------------------------------------------------------|
[ Tab from: http://www.guitartabs.cc/tabs/k/kisschasy/this_bed_btab.html ]
G-----------------------|
D-----------------------|
A-4-44-3-33-2-22-1-11---|  x3
E-----------------------|

G----------------------------------|
D----------------------------------|
A-4-44-3-33-2-22-1-1-1-1-1-1-11-0~-|
E----------------------------------|

G---------------------------|
D---------------------------|
A-4~----0~-------2~------0~-|
E-----0~---------------0~---|

G--------------------|
D--------------------|
A-2~-4~-0~--2~-4~-0~-|
E--------------------|

G---------------------------|
D---------------------------|
A-0-0000-0-0000-2-222-4-444-|
E---------------------------|

G--------------------------------|
D--------------------------------|
A-0-0-00-0-0-00-2-2-22-4-4-44----|   x2
E--------------------------------|

G------------------------------|
D------------------------------|
A-0-000000000000-0-00000000000-|
E------------------------------|

G-----------------------|
D-----------------------|
A-4-44-3-33-2-22-1-11---|  x3
E-----------------------|

G-----------------------------------|
D-----------------------------------|
A-4-44-3-33-2-22-0--0-0-0-0-0-00-1~-|
E-----------------------------------|

G-----------------------|
D-----------------------|
A-0--0-0-0-0-0-00-1~----|   x2
E-----------------------|

G------|
D------|
A-0~~~~
E------