Kisschasy - Morning Chords & Tabs

 

Morning Chords & Tabs

Kisschasy Chords & Tabs

Version: 2 Type: Tab

Morning Tab

hey people, dunno if this is right,as i am only 14 but i couldnt find these tabs
anywhere so i thought that i might be able to figure this out on my own and i hope
its good, because these are the first tabs i've tried to work out so if it doesnt
sound right you can try fix it. well enjoy

oh and if you need anything or would like to help me then please email me. 
thank you :)

[ Tab from: http://www.guitartabs.cc/tabs/k/kisschasy/morning_tab_ver_2.html ]
E|-3-1---------3-1---------3-1---------|--3-1-5-5-6-5-1-----------|
B|-------1-3---------1-3---------1-3---|--------------------------|
G|-------------------------------------|--------------------------|
D|-------------------------------------|--------------------------|
A|-------------------------------------|--------------------------|
E|-------------------------------------|--------------------------|


and then its the chords, but sorry couldn't figure them out :( and it goes back to this bit:

E|-3-1---------3-1---------3-1---------|--3-1-5-5-6-5-1-----------|
B|-------1-3---------1-3---------1-3---|--------------------------|
G|-------------------------------------|--------------------------|
D|-------------------------------------|--------------------------|
A|-------------------------------------|--------------------------|
E|-------------------------------------|--------------------------|

if anyone figures the rest out can you please tell me!!!! lol well hope that sounds 
:) Rock oN.