Kisschasy - Face Without A Name Chords & Tabs

 

Face Without A Name Chords & Tabs

Kisschasy Chords & Tabs

Version: 1 Type: Bass Tab

Face Without A Name Bass Tab

Band - Kisschasy
Song - Face Without a Name
Album - United Paper People
Tabbed By - Jayson

Hey I think I got this as good as it gets. if u listen carefully
all of this is in there. try it out and please rate :D

G------------------------------------------------------------------|
D------------------------------------------------------------------|
A-12/14---------------------------------------3-33-3-3-3-3-3-3-33--|
E---------3--3-3-3-3-3-3-33-3-33-3-3-3-3-3-3-33--------------------|

G--------------------------------------------------------------------|
D--------------------------------------------------------------------|
A-0-00-0-0-55-3----------------------------------3-33-3-3-3-3-3-3-33-|
E------------3-3-3-3-3-3-3-33-3-33-3-3-3-3-3-3-33--------------------|

G--------------------------------------------------------------------|
D--------------------------------------------------------------------|
A-0-00-0-0-55-3----------------------------------3-33-3-3-3-3-3-3-33-|
E------------3-3-3-3-3-3-3-33-3-33-3-3-3-3-3-3-33--------------------|

G-------------------------------------------------------------------------|
D-------------------------------------------------------------------------|
A-0-00-0-0-55-3----------------22-22-33-33--------------------------------|
E------------3-3-33-3-3-3-3-33------------3-3-3-3-3-3-3-3-3-3-3-3-3-3-2-0-|

G--------------------------------------|
D--------------------------------------|
A-22-22-33-33--------------------------|
E------------3-33-------3-33-----------|

G---------------------------------------------------------------------------|
D---------------------------------------------------------------------------|
A-10/143-33-3-3-3-3-3-3-33-0-00-0-0-55-3------------------------------------|
E--------------------------------------3-3-3-3-3-3-3-33-3-33-3-3-3-3-3-3-33-|
[ Tab from: http://www.guitartabs.cc/tabs/k/kisschasy/face_without_a_name_btab.html ]
G---------------------------------------------------------------------|
D---------------------------------------------------------------------|
A-3-33-3-3-3-3-3-3-33-0-00-0-0-55-3-----------------------------------|
E--------------------------------3-3-3-3-3-3-3-33-3-33-3-3-3-3-3-3-33-|

G--------------------------------------------------|
D--------------------------------------------------|
A-3-33-3-3-3-3-3-3-33-0-00-0-0-55-3----------------|
E--------------------------------3-3-33-3-3-3-3-33-|

G--------------------------------------------|
D--------------------------------------------|
A-22-22-33-33--------------------------------|
E------------3-3-3-3-3-3-3-3-3-3-3-3-3-3-2-0-|

G-----------------------------------------------|
D-----------------------------------------------|
A-22-22-33-33-0-0-0-0/15-15-15-153-3-3-3-3-3-3--|
E-----------------------------------------------|

G-------------------------------------------------------------------|
D-------------------------------------------------------------------|
A----------------3-3-3-3-3-3-3-3-0-0-0-0-0-0-0-0-3-3-3-3-3-3-3-3----|
E-3-3-3-3-3-3-3-3---------------------------------------------------|
G-------------------------------------------------------------------|
D-------------------------------------------------------------------|
A----------------3-3-3-3-3-3-3-3-0-0-0-0-0-0-0-0-3-3-3-3-3-3-3-3-22-|
E-3-3-3-3-3-3-3-3---------------------------------------------------|

G--------------------------------------------|
D--------------------------------------------|
A--------------------------------------------|
E------------3-3-3-3-3-3-3-3-3-3-3-3-3-3-2-0-|

G----------------------------------------------|
D----------------------------------------------|
A-22-22-33-33-0-0-0-0/15-15-153-3-3-3-3-3-3-3--|
E----------------------------------------------|

G----------------------------------------------------------------|
D----------------------------------------------------------------|
A----------------3-3-3-3-3-3-3-3-0-0-0-0-0-0-0-0-3-3-3-3-3-3-3-3-|
E-3-3-3-3-3-3-3-3------------------------------------------------|

G----------------------------------------------------------------|
D----------------------------------------------------------------|
A----------------3-3-3-3-3-3-3-3-0-0-0-0-0-0-0-0-3-3-3-3-3-2-0---|
E-3-3-3-3-3-3-3-3---------------------------------------------3~-|