Kisschasy - Do-dos And Whoa-ohs Chords & Tabs

 

Do-dos And Whoa-ohs Chords & Tabs

Kisschasy Chords & Tabs

Version: 2 Type: Tab 0 ratings
1 star 2 stars 3 stars 4 stars 5 stars
comments

Do-dos And Whoa-ohs Tab

Kisschasy
Do-dos and Woah-ohs
Standard tuning   Guitar 1=(EADGBe)
                  Guitar 2=(EADGBe)
Tabbed by Swado - Swado_160@hotmail.com


      I was lookin on mxtabs the other night and seen a verion of this song by Neeky (neeky_16@hotmail.com)
      and it was pritty close but it didn`t have much of the 2nd (lead)guitarists work so i thought i would
      update it abit but well done too Neeky!!      



VERSE 1(guitar 1)
|----------------------------------------------------------5--------|-- Times 3 (x3)
|--7-7-7-7-7-7-7-7-7-7-7-7-7-7-7-7-7-7-7-7-7-7-7-7-7-7-7-7---5-7----|--
|--7-7-7-7-7-7-7-7-7-7-7-7-7-7-7-7-7-7-7-7-7-7-7-7-7-7-7-7----------|--
|--5-5-5-5-5-5-5-5-0-0-0-0-0-0-0-0-5-5-5-5-5-5-5-5-0-0-0-0----------|--
|-------------------------------------------------------------------|--
|-------------------------------------------------------------------|--


|---------------------------------------------------------------------| Times 1 (x1)
|---7-7-7-7-7-7-7-7-7-7-7-7-7-7-7-7-----------------------------------|
|---7-7-7-7-7-7-7-7-7-7-7-7-7-7-7-7-9-9-9-9-9-9-9-9-9-9-9-9-9-9-7-7-7-|
|---5-5-5-5-5-5-5-5-0-0-0-0-0-0-0-0-X-X-X-X-X-X-X-X-X-X-X-X-X-X-X-X-X-|
|-----------------------------------7-7-7-7-7-7-7-7-7-7-7-7-7-7-5-5-5-|
|-----------------------------------0-0-0-0-0-0-0-0-0-0-0-0-0-0-------|


VERSE 2(guitar 1)
|------------------------------------5-----------------------------5--------|-- Times 2 (x2)
|--7-7-7-7-7-7-7-7-7-7-7-7-7-7-7-7----5-7--7-7-7-7-7-7-7-7-7-7-7-7---5-7----|--
|--7-7-7-7-7-7-7-7-7-7-7-7-7-7-7-7---------7-7-7-7-7-7-7-7-7-7-7-7----------|--
|--5-5-5-5-5-5-5-5-0-0-0-0-0-0-0-0---------5-5-5-5-5-5-5-5-0-0-0-0----------|--
|---------------------------------------------------------------------------|--
|---------------------------------------------------------------------------|--


|---------------------------------------------------------------------| Times 1 (x1)
|---7-7-7-7-7-7-7-7-7-7-7-7-7-7-7-7-----------------------------------|
|---7-7-7-7-7-7-7-7-7-7-7-7-7-7-7-7-9-9-9-9-9-9-9-9-9-9-9-9-9-9-7-7-7-|
|---5-5-5-5-5-5-5-5-0-0-0-0-0-0-0-0-X-X-X-X-X-X-X-X-X-X-X-X-X-X-X-X-X-|
|-----------------------------------7-7-7-7-7-7-7-7-7-7-7-7-7-7-5-5-5-|
|-----------------------------------0-0-0-0-0-0-0-0-0-0-0-0-0-0-------|


CHORUS(both)
|----------------------|Times 4 (x4)
|----------------------|
|----------------------|
|----------------------|
|--555---77---999--44--|
|--333---55---777--22--|

POST CHORUS
|----------------------------------------------------------5--------|-- Times 2 (x2)
|--7-7-7-7-7-7-7-7-7-7-7-7-7-7-7-7-7-7-7-7-7-7-7-7-7-7-7-7---5-7----|--
|--7-7-7-7-7-7-7-7-7-7-7-7-7-7-7-7-7-7-7-7-7-7-7-7-7-7-7-7----------|--
|--5-5-5-5-5-5-5-5-0-0-0-0-0-0-0-0-5-5-5-5-5-5-5-5-0-0-0-0----------|--
|-------------------------------------------------------------------|--
|-------------------------------------------------------------------|--


VERSE 1(guitar 1)
|----------------------------------------------------------5--------|-- Times 1 (x1)
|--7-7-7-7-7-7-7-7-7-7-7-7-7-7-7-7-7-7-7-7-7-7-7-7-7-7-7-7---5-7----|--
|--7-7-7-7-7-7-7-7-7-7-7-7-7-7-7-7-7-7-7-7-7-7-7-7-7-7-7-7----------|--
|--5-5-5-5-5-5-5-5-0-0-0-0-0-0-0-0-5-5-5-5-5-5-5-5-0-0-0-0----------|--
|-------------------------------------------------------------------|--
|-------------------------------------------------------------------|--
  
 Riffs During Verse    (guitar 2)
|--------------------|            |--------------------|
|-7-7hb-r------------|            |--7-7hb-r-----------|
|---------7----------|            |----------7---------|
|-----------7-5-7----|            |--------------------|
|--------------------|            |--------------------|
|--------------------|            |--------------------|


   (guitar 1)
|---------------------------------------------------------------------| Times 1 (x1)
|---7-7-7-7-7-7-7-7-7-7-7-7-7-7-7-7-----------------------------------|
|---7-7-7-7-7-7-7-7-7-7-7-7-7-7-7-7-9-9-9-9-9-9-9-9-9-9-9-9-9-9-7-7-7-|
|---5-5-5-5-5-5-5-5-0-0-0-0-0-0-0-0-X-X-X-X-X-X-X-X-X-X-X-X-X-X-X-X-X-|
|-----------------------------------7-7-7-7-7-7-7-7-7-7-7-7-7-7-5-5-5-|
|-----------------------------------0-0-0-0-0-0-0-0-0-0-0-0-0-0-------|

                       (guitar 2)
|--------------------|            |--------------------|
|-7-7hb-r------------|            |--5~----------------|
|---------7----------|            |--------------------|
|-----------7-5-7----|            |--------------------|
|--------------------|            |--------------------|
|--------------------|            |--------------------|
[ Tab from: http://www.guitartabs.cc/tabs/k/kisschasy/do_dos_and_whoa_ohs_tab_ver_2.html ]
verse 2(guitar 1)
|----------------------------------------------------------5--------|-- Times 1 (x1)
|--7-7-7-7-7-7-7-7-7-7-7-7-7-7-7-7-7-7-7-7-7-7-7-7-7-7-7-7---5-7----|--
|--7-7-7-7-7-7-7-7-7-7-7-7-7-7-7-7-7-7-7-7-7-7-7-7-7-7-7-7----------|--
|--5-5-5-5-5-5-5-5-0-0-0-0-0-0-0-0-5-5-5-5-5-5-5-5-0-0-0-0----------|--
|-------------------------------------------------------------------|--
|-------------------------------------------------------------------|--
  
 Riffs During Verse    (guitar 2)
|--------------------|            |----------5---------|
|-7-7hb-r------------|            |--7-7hb-r-----------|
|---------7----------|            |--------------------|
|-----------7-5-7----|            |--------------------|
|--------------------|            |--------------------|
|--------------------|            |--------------------|

   (guitar 1)
|---------------------------------------------------------------------| Times 1 (x1)
|---7-7-7-7-7-7-7-7-7-7-7-7-7-7-7-7-----------------------------------|
|---7-7-7-7-7-7-7-7-7-7-7-7-7-7-7-7-9-9-9-9-9-9-9-9-9-9-9-9-9-9-7-7-7-|
|---5-5-5-5-5-5-5-5-0-0-0-0-0-0-0-0-X-X-X-X-X-X-X-X-X-X-X-X-X-X-X-X-X-|
|-----------------------------------7-7-7-7-7-7-7-7-7-7-7-7-7-7-5-5-5-|
|-----------------------------------0-0-0-0-0-0-0-0-0-0-0-0-0-0-------|

                       (guitar 1)
|--------------------|            |--------------------|
|-7-7hb-r------------|            |--5~----------------|
|---------7----------|            |--------------------|
|-----------7-5-7----|            |--------------------|
|--------------------|            |--------------------|
|--------------------|            |--------------------|


CHORUS (guitar 1)
|----------------------|Times 8 (x8)
|----------------------|
|----------------------|
|----------------------|
|--555---77---999--44--|
|--333---55---777--22--|


CHORUS RIFF (2nd 4 times)(guitar 2)
e|--10--10--10-------|
B|-------------------|
G|----7---7---7-etc--|


INTERLUDE 1
(Guitar 1)
|---------------------------------------|Times 4 (x4)
|---------------------------------------|
|---------------------------------------|
|---------------------------------------|
|--55--------77--------99---------55----|
|--33--------55--------77---------22----|

(Guitar 2)
|-----------|--5-----|-----------|------|
|--5/7\5----|---5-7--|--5/7\5----|--7~--|
|--------7--|--------|--------7--|------|
|-----------|--------|-----------|------|
|-----------|--------|-----------|------|
|-----------|--------|-----------|------|



INTERLUDE 2(guitar 1)
|--------------------------------------------------------------------|-- Times 1 (x1)
|--7-7-7-7-7-7-7-7-7-7-7-7-7-7-7-7-7-7-7-7-7-7-7-7-7-7-7-7-7-7-7-7---|--
|--7-7-7-7-7-7-7-7-7-7-7-7-7-7-7-7-7-7-7-7-7-7-7-7-7-7-7-7-7-7-7-7---|--
|--5-5-5-5-5-5-5-5-0-0-0-0-0-0-0-0-5-5-5-5-5-5-5-5-0-0-0-0-0-0-0-0---|--
|--------------------------------------------------------------------|--
|--------------------------------------------------------------------|--


(guitar 1)
|--------------------------------------------------------------------|-- Times 3 (x3)
|--7-7-7-7-7-7-7-7-7-7-7-7-7-7-7-7-7-7-7-7-7-7-7-7-7-7-7-7-7-7-7-7---|--
|--7-7-7-7-7-7-7-7-7-7-7-7-7-7-7-7-7-7-7-7-7-7-7-7-7-7-7-7-7-7-7-7---|--
|--5-5-5-5-5-5-5-5-0-0-0-0-0-0-0-0-5-5-5-5-5-5-5-5-0-0-0-0-0-0-0-0---|--
|--------------------------------------------------------------------|--
|--------------------------------------------------------------------|--

 (guitar 2)
|----------------5-----------| |---------------5b-5~----| Times 3 (x3)
|-88888-7-5----------5-7-----| |--88888-7-5---------5-7-|
|-----------7------7---------| |------------7-----------|
|-------------7--------------| |------------------------|
|----------------------------| |------------------------|
|----------------------------| |------------------------|



CHORUS (guitar 1)
|----------------------|Times 8 (x8)
|----------------------|
|----------------------|
|----------------------|
|--555---77---999--44--|
|--333---55---777--22--|


CHORUS RIFF (2nd 4 times)(guitar 2)
e|--10--10--10-------|
B|-------------------|
G|----7---7---7-etc--|



   
INTERLUDE 2(guitar 1)
|--------------------------------------------------------------------|-- Times 2 (x2)
|--7-7-7-7-7-7-7-7-7-7-7-7-7-7-7-7-7-7-7-7-7-7-7-7-7-7-7-7-7-7-7-7---|--
|--7-7-7-7-7-7-7-7-7-7-7-7-7-7-7-7-7-7-7-7-7-7-7-7-7-7-7-7-7-7-7-7---|--
|--5-5-5-5-5-5-5-5-0-0-0-0-0-0-0-0-5-5-5-5-5-5-5-5-0-0-0-0-0-0-0-0---|--
|--------------------------------------------------------------------|--
|--------------------------------------------------------------------|--


 (guitar 2)
|----------------5-----------| |---------------5b-5~----| Times 2 (x2)
|-88888-7-5----------5-7-----| |--88888-7-5---------5-7-|
|-----------7------7---------| |------------7-----------|
|-------------7--------------| |------------------------|
|----------------------------| |------------------------|
|----------------------------| |------------------------|



INTERLUDE 3(guitar 1)
|--------------------------------------------------------------------|-- Times 2 (x2)
|--7-7-7-7-7-7-7-7-7-7-7-7-7-7-7-7-7-7-7-7-7-7-7-7-7-7-7-7-7-7-7-7---|--
|--7-7-7-7-7-7-7-7-7-7-7-7-7-7-7-7-7-7-7-7-7-7-7-7-7-7-7-7-7-7-7-7---|--
|--5-5-5-5-5-5-5-5-0-0-0-0-0-0-0-0-5-5-5-5-5-5-5-5-0-0-0-0-0-0-0-0---|--
|--------------------------------------------------------------------|--
|--------------------------------------------------------------------|--



 (guitar 2)
|-5-----5-----5-----5---------------| Times 4 (x4)
|---7-5---7-5---7-5---7-5--8-7-5-3--| 
|-----------------------------------| 
|-----------------------------------| 
|-----------------------------------| 
|-----------------------------------| 



OUTRO(guitar 1)
|--------------------|Times 1 (x1)
|--------------------|
|--------------------|
|--------------------|
|--555---77---999----|
|--333---55---757----|
Comments