Kisschasy - Do-dos And Whoa-ohs Chords & Tabs

 

Do-dos And Whoa-ohs Chords & Tabs

Kisschasy Chords & Tabs

Version: 1 Type: Tab 0 ratings
1 star 2 stars 3 stars 4 stars 5 stars
comments

Do-dos And Whoa-ohs Tab

   
Kisschasy
Do-do's & Woah-oh's
Standard tuning
Tabbed by Neeky - neeky_16@hotmail.com

Intro/Verse (Daz) (Repeat the 1st bar 3 times)

|------------------------------------------------------------5------|--
|--7-7-7-7-7-7-7-7-7-7-7-7-7-7-7-7-7-7-7-7-7-7-7-7-7-7-7-7-------7--|--
|--7-7-7-7-7-7-7-7-7-7-7-7-7-7-7-7-7-7-7-7-7-7-7-7-7-7-7-7-7---7----|--
|--5-5-5-5-5-5-5-5-0-0-0-0-0-0-0-0-5-5-5-5-5-5-5-5-0-0-0-0----------|--
|-------------------------------------------------------------------|--
|-------------------------------------------------------------------|--

--------------------------------------------------------------------|
---7-7-7-7-7-7-7-7-7-7-7-7-7-7-7-7----------------------------------|
---7-7-7-7-7-7-7-7-7-7-7-7-7-7-7-7-9-9-9-9-9-9-9-9-9-9-9-9-9-9-7-7--|
---5-5-5-5-5-5-5-5-0-0-0-0-0-0-0-0-X-X-X-X-X-X-X-X-X-X-X-X-X-X-X-X--|
-----------------------------------7-7-7-7-7-7-7-7-7-7-7-7-7-7-5-5--|
-----------------------------------0-0-0-0-0-0-0-0-0-0-0-0-0-0------|

Chorus
[ Tab from: http://www.guitartabs.cc/tabs/k/kisschasy/do_dos_and_whoa_ohs_tab.html ]
|--------------------|
|--------------------|
|--------------------|
|--------------------|
|--555---7---999--4--|
|--333---5---777--2--|

Lead part (2nd time round)
e|--10--10--10-------|
B|-------------------|
G|----7---7---7-etc--|

INTERLUDE
Guitar 1
|---------------------------------------|
|---------------------------------------|
|---------------------------------------|
|---------------------------------------|
|--55--------77--------99---------55----|
|--33--------55--------77---------22----|
Guitar2
|-----------|--5-----|-----------|------|
|--5/7\5----|---5-7--|--5/7\5----|--7~--|
|--------7--|--------|--------7--|------|
|-----------|--------|-----------|------|
|-----------|--------|-----------|------|
|-----------|--------|-----------|------|

Build up bit
|-----------------------------------------5/7\5--|
|--8-8-8-8-8-8-8-------7--8-8-8-8-8-8-8----------|
|----------------7---7------------------7--------|
|------------------7-----------------------------|
|------------------------------------------------|
|------------------------------------------------|

Outro

Just Chords G5 & D5

Enjoy guys, its an awesome song and I just had to add it!
Neeky xoxo
Comments