Kisschasy - Darkside Chords & Tabs

 

Darkside Chords & Tabs

Kisschasy Chords & Tabs

Version: 1 Type: Bass Tab

Darkside Bass Tab

   
Intro 0.06

G|-----------------------------|
D|-----------------------------| x 12
A|-----------------------------|
E|-0-0-0--3-3-3--9-9-9-9-9-9-9-|

Break 0.40

0.51

G|-----------------------------|
D|-----------------------------| x 12
A|-----------------------------|
E|-0-0-0--3-3-3--9-9-9-9-9-9-9-|  
                                  
Break 1.25

1.42
[ Tab from: http://www.guitartabs.cc/tabs/k/kisschasy/darkside_btab.html ]
G|---------------------------------|      
D|---------------------------------| x 4
A|---------------------------------|
E|-5-5-5-5-5-5-5-5-8-8-8-8-8-8-8-8-|
 |___________Palm_muted____________|

1.53

G|--------------------------------------------------------------------|   
D|--------------------------------------------------------------------| x 
A|--------------------------------------------------------------------|
E|-5-5-5-5--5-5-5-5--5-5-5-5--5-5-5--8-8-8-8--8-8-8-8--8-8-8-8--8-8-8-|

2.05

G|-----------------------------|
D|-----------------------------| x 4
A|-----------------------------|
E|-0-0-0--3-3-3--9-9-9-9-9-9-9-|