Kiss - Tears Are Falling Chords & Tabs

 

Tears Are Falling Chords & Tabs

Kiss Chords & Tabs

Version: 2 Type: Tab 0 ratings
1 star 2 stars 3 stars 4 stars 5 stars
comments

Tears Are Falling Tab

   
CHORUS/repeat once                      VERSE
----------------------------------------|-------------------
----------------------------------------|-------------------
--9-----7--9--7--9-----7--9--7--5--9--7-|--9--7--7/9--7--6--
--9--9--7--9--7--9--9--7--9--7--5--9--7-|--9--7--7/9--7--6--
--7--9--5--7--5--7--9--5--7--5--3--7--5-|--7--5--5/7--7--4--
-----7--------------7-------------------|-------------------

----------------|--------------|--------------|------------|
----------------|--------------|--------------|------------|
--7--9--7--5--7-|-PLAY CHORUS--|--PLAY VERSE--|-PLAY CHORUS|
--7--9--7--5--7-|--------------|--------------|------------|
--5--7--5--3--5-|--------------|--------------|------------|
----------------|--------------|--------------|------------|
       SOLO
-|---|--------12b13----------------------11b13--11p8h11-----
-|---|-----------------------------9-11---------------------
-|-9-|--7b9-----------------8/10------------------------8/10
-|-9-|------------------------------------------------------
-|-7-|-------------9h10-10----------------------------------
-|---|------------------------------------------------------

--------------------------------------------------13--------
--------------11-13-11-9----9b11r9------------------13-13---
--13-10-13---------------12--------10--8/10-8h10p8-------13-
------------------------------------------------------------
------------------------------------------------------------
------------------------------------------------------------
[ Tab from: http://www.guitartabs.cc/tabs/k/kiss/tears_are_falling_tab_ver_2.html ]
---------------------------------------------18--------18---
------------------------------------------------------------
--12b13--15p13p12------13-12--------------------------------
-------------------15---------15-13-15--14h17---14h17-------
------------------------------------------------------------
------------------------------------------------------------

-------18-------18-------18-----18b19-19-18b19-11h13--16--13
------------------------------------------------------------
------------------------------------------------------------
-14h17----14h17----14h17-----14-----------------------------
------------------------------------------------------------
------------------------------------------------------------

--------14-18p14----18p14----18p14----18p14----18p14---18p14
-----16----------16-------16-------16-------16-------16-----
------------------------------------------------------------
------------------------------------------------------------
------------------------------------------------------------
------------------------------------------------------------

----18p14----18p14----18p14----18p14----18p14-----18p14-----
-16-------16-------16-------16-------16--------16--------16-
------------------------------------------------------------
------------------------------------------------------------
------------------------------------------------------------
------------------------------------------------------------

-18p14----18p14----18p14----18p14---|----------------------|
-------16-------16-------16-------16|----------------------|
------------------------------------|PLAY CHORUS MANY TIMES|
------------------------------------|----------------------|
------------------------------------|----------------------|
------------------------------------|----------------------|

Well there you are,please rate my tabs.
p.s. the part that goes--18p14----18p14
                       16------16------
is not an exact count of how many you do!
just play along with the song and you'll
figure out when to stop.

KEY
B=BEND
P=PULL
/=SLIDE
Comments